Oops, an error
Loading. Please wait.

Jugo De Tomate Frio Tab

version 1
version 1

Whole song

469 views 3 this week
no commentswrite comment
1 2 3 4 5
3 more votes to show rating
add to favorites
launch autoscroll
font size
0
reset
how to read this tab
guitar tuner
×
Best way to learn
"Jugo De Tomate Frio"
Autoscroll
slow
fast
+/-
esc
set tempo
stop
Eeeeh, bueno... esta es mi primer transcripción
Estuve 1 hora tratando de sacar este tema hasta que salió.
A mi me suena bastante parecido.

Nota: el Slide hay q tratar de hacerlo bien rápido
como en el tema original.


INTRO

e|-------------------------|-------------------------|
B|-------------------------|-------------------------|
G|--7s9-12-9-7-5-----------|--7s9-12-9-7-5-----------|x2
D|---------------7--5------|---------------7-5-5h7v--|
A|--------------------7-7b-|-------------------------|
E|-------------------------|-------------------------|

e|-----------------|
B|-----------------|
G|--------5---5----|
D|------5---7---7--|x2
A|--5-7------------|
E|-----------------|

[ch]A7[/ch]
La tierra que te da la vida
da un tiempo para decidir
eligiendo inteligentemente
todo el mundo podra ser feliz

Estribillo

[ch]B7[/ch]
Jugo de tomate frio
F#
jugo de tomate frio
[ch]A7[/ch]
en las venas
en las venas deberas tener

[ch]A7[/ch]
Si queres ser un terrible vago
todo el dia panza arriba y a dormir
o elegiste ser un tipo capo
siempre serio y que da temor  deberas tener

Estribillo

[ch]A7[/ch]
Si queres triunfar con las mujeres
tener muchas que lloren por vos
tendras que ser muy poco inteligente
tener dinero, y una buena voz

Estribillo

[ch]A7[/ch]
Si queres ser un hombre importante
que se hable todo el dia de vos
[ch]B[/ch] queres inmortalizarte
como heroe, asesino o semidios

Estribillo


OUTRO

e|-------------------------|-------------------------|
B|-------------------------|-------------------------|
G|--7s9-12-9-7-5-----------|--7s9-12-9-7-5-----------|
D|---------------7--5------|---------------7-5-5h7v--|
A|--------------------7-7b-|-------------------------|
E|-------------------------|-------------------------|


e|-------------------------|--------------------5--5-|
B|-------------------------|--------------------5--5-|
G|--7s9-12-9-7-5-----------|--7s9-12-9-7-5------6--6-|
D|---------------7--5------|---------------7-5--7--7-|
A|--------------------7-7b-|--------------------7--7-|
E|-------------------------|--------------------5--5-|


Un saludo a los muchachos de "Mamá esta presa" y
a los de "Caida libre", que tocaron en "Akaya Rock"
el 24/11 el sábado, que son amigos y unos kapos...
Éxitos gente!!
Suggest correction
Give kudos to tab author, rate the tab!
1 2 3 4 5
comments
print report bad tab
guest
You may want to rate the tab now too:
select rating
Wanna post a correction for this tab? Suggest correction