Oops, an error
Loading. Please wait.

Jugo De Tomate Tab

280 views 3 this week
no commentswrite comment
1 2 3 4 5
3 more votes to show rating
add to favorites
launch autoscroll
font size
0
reset
how to read this tab
guitar tuner
×
Best way to learn
"Jugo De Tomate"
Autoscroll
slow
fast
+/-
esc
set tempo
stop
Intro:  A7

    A7
La tierra que te da la vida
da un tiempo para decidir;
eligiendo inteligentemente
todo el mundo podrá ser feliz.
Bm
Jugo de tomate frío,
F#m
jugo de tomate frío
        A7
en las venas, en las venas deberás tener.

Inter: A7

       A7
Si querés ser un terrible vago,
todo el día panza arriba y a dormir;
o elegiste ser un tipo capo,
siempre serio y que da temor, deberás tener
Bm
Jugo de tomate frío,
F#m
jugo de tomate frío
        A7
en las venas, en las venas deberás tener.

Inter: A7

       A7
si querés triunfar con las mujeres,
tener muchas que lloren por vos,
tendrás que ser muy poco inteligente,
tener dinero y una buena voz.
Bm
Jugo de tomate frío,
F#m
jugo de tomate frío
        A7
en las venas, en las venas deberás tener.

Inter: A7

       A7
Si querés ser un hombre importante,
que se hable todo el día de vos,
o querés inmortalizarte
como héroe, asesino o semidiós
Bm
Jugo de tomate frío,
F#m
jugo de tomate frío
        A7
en las venas, en las venas deberás tener.

Final: A7

Intro:
 A7
*----------------------*-------------------------*----------------------------*
*----------------------*-------------------------*----------------------------*
**--/7-10-7-5----------*--/7-10-7-5-------------***-----------------5---5----**
**------------7-5------*-------------7-5---5^7--***--7--------5-5^7---7---7--**
*-----------------7-7--*-----------------7-------*---7--5-5^7-----------------*
*----------------------*-------------------------*---5------------------------*

Inter:
 A7
*--------------------------*
*--------------------------*
*------5--/9------5--------*
*--5^7--------5^7----7--7--*
*--------------------------*
*--------------------------*

Final:
 A7
*----------------------*--------------------5--5--*
*----------------------*--------------------5--5--*
*---/7-10-7-5----------*--/7-10-7-5---------6--6--*
*-------------7-5------*-------------7-5----7--7--*
*-----------------7-7--*-----------------7--7--7--*
*----------------------*--------------------5--5--*
Suggest correction
Give kudos to tab author, rate the tab!
1 2 3 4 5
comments
print report bad tab
guest
You may want to rate the tab now too:
select rating
Wanna post a correction for this tab? Suggest correction