Oops, an error
Loading. Please wait.

Necesito Un Amor Bass Tab

72 views 1 this week
no commentswrite comment
1 2 3 4 5
3 more votes to show rating
add to favorites
launch autoscroll
font size
0
reset
guitar tuner
×
Best way to learn
"Necesito Un Amor"
Autoscroll
slow
fast
+/-
esc
set tempo
stop
Intro

G|----------------------------------|
D|----------------------------------|
A|-8s10-10-10-10-13-13-13-13--------|
E|----------------------------------|(x2)

G|---------------------10h12-10------|
D|------------------------------12-10|
A|-8s10-10-10-10-13-13---------------|
E|-----------------------------------|

G|-10-----------------|
D|----13-12-10--------|
A|-------------12-----|
E|----------------13--|

Verso "Para mi que estoy..."

G|------------------------------------------------|
D|-8---------8------------------------------------|
A|---11-8-11---11-8-11-(0)-10-8----8-(0)-10-8----8|
E|------------------------------10------------10--|(x3)

"Todos muy solos..."

G|------------------------------|
D|---5-6-7-h8------10-10-8------|
A|-6------------10---------10-8-|
E|------------8-----------------|(x2)

"De noche van a pasear..."

G|------------------------------------------------|
D|-8---------8------------------------------------|
A|---11-8-11---11-8-11-(0)-10-8----8-(0)-10-8----8|
E|------------------------------10------------10--|(x2)

"Nada más..."

G|--------10-------------------------------|
D|---7-10-----------10-8-8h10p8------------|
A|-8-----------7-10-------------10-8-------|
E|-----------8-----------------------10-8--|

"La vida por la calle..."

G|-------------------------------------------|
D|-8---------8-------------------------------|
A|---11-8-11---11-8-9-10-8----8-(0)-10-8----8|
E|-------------------------10------------10--|

G|-------(8-8)-8----|
D|---(8)---------6-7|
A|-8----------------|
E|------------------|

"Dando vueltas..."

G|-------------------------------------------|
D|-8---------8-------------------------------|
A|---11-8-11---11-8-9-10-8----8-(0)-10-8----8|
E|-------------------------10------------10--|(x2)

G|---------------------------------------------|
D|-8---------8---------------------------------|
A|---11-8-11---11-8-9-10-8----8-(0)-10-8-------|
E|-------------------------10------------10-10-|

"Es inmensa la ciudad..."

G|----------------------------|
D|---5-6-7-h8------10-8-8-----|
A|-6------------10--------10--|
E|------------8---------------|

G|------------------------------------|
D|---5-6-7-h8------10-8-8h10p8----8---|
A|-6------------10-------------10---10|
E|------------8-----------------------|

"Yo soy un hombre más..."

G|-------------------------------------------|
D|-8---------8-------------------------------|
A|---11-8-11---11-8-9-10-8----8-(0)-10-8----8|
E|-------------------------10------------10--|(x2)

"Nada más..."

G|--------10-------------------------------|
D|---7-10-----------10-8-8h10p8------------|
A|-8-----------7-10-------------10-8-------|
E|-----------8-----------------------10-8--|

"La vida por la calle..."

G|-------------------------------------------|
D|-8---------8-------------------------------|
A|---11-8-11---11-8-9-10-8----8-(0)-10-8----8|
E|-------------------------10------------10--|

G|-(10-10-8)--------|
D|-----------10----7|
A|--------------10--|
E|------------------|

"Cada minuto es un minuto menos"

G|-------------------------------------------|
D|-8---------8-------------------------------|
A|---11-8-11---11-8-9-10-8----8-(0)-10-8----8|
E|-------------------------10------------10--|(x3)

G|------------|
D|-8----------|
A|---11-8-11--|
E|------------|(x2)

"Ne-ce-si-to..."

G|----12p10--------------------|
D|----------12-10--------------|
A|-10-------------12p10----10--|
E|----------------------13-----|(x3)

"Cada minuto es un minuto menos"

G|------------|
D|-8----------|
A|---11-8-11--|
E|------------|(x2)

"Ne-ce-si-to..."

G|----12p10--------------------|
D|----------12-10--------------|
A|-10-------------12p10----10--|
E|----------------------13-----|(x3)

G|----------------------------------|
D|-10-10-10p8h10h11-11-11p10p8------| enganche bien rápido
A|-----------------------------10---|
E|----------------------------------|

"Cada minuto es un minuto menos"

G|------------|
D|-8----------|
A|---11-8-11--|
E|------------|(x2)

"Ne-ce-si-to..."

G|-------12-12-|12-----12----|
D|----12-------|--12-----12--|
A|-10----------|----10-----10|
E|-------------|-------------|(x3)

G|-12h10----12-(15)-15p12s10-12h10-----------|
D|-------12------------------------12-10p8---|
A|-----------------------------------------10|
E|-------------------------------------------|

"Cada minuto es un minuto menos"

G|------------|
D|-8----------|
A|---11-8-11--|
E|------------|(x2)

"Ne-ce-si-to...                               ...un amor"

G|-----------------------------------------------------|
D|-5---------------5-------5-------5-------5-------(5)8|
A|---7h5-7-5h7-5h7---5-7p5---5-7p5---7-5h7---7-5h7-----|
E|-----------------------------------------------------|

Escriban cualquier cosa...suerte y hasta la próxima.
PrincipioFinal Rock Nacional '70!
Suggest correction
Give kudos to tab author, rate the tab!
1 2 3 4 5
comments
print report bad tab
guest
You may want to rate the tab now too:
select rating
Wanna post a correction for this tab? Suggest correction