Oops, an error
Loading. Please wait.

No Pibe Tab

by Manal
158 views 3 this week
no commentswrite comment
1 2 3 4 5
3 more votes to show rating
add to favorites
×
Save as Personal and add changes to this tab that will be seen only by you. Learn more ›
×
You can save this tab as Personal to edit and correct it or add notes. All changes will be seen only by you. Learn more »
save as personal
new!
launch autoscroll
font size
0
reset
how to read this tab
guitar tuner
Autoscroll
slow
fast
+/-
esc
set tempo
stop
No pibe

Intro
--11-------11---------------------------------------
--11--13---11--13---11---------------------------8--
--------------------12--10--8--8--10--10--8--10--8--
-------------------------------8--10--10--8--10-----
----------------------------------------------------
----------------------------------------------------

--11-------11---------------------------------------
--11--13---11--13---11------------------------------
--------------------12--10--8--10--8----------------
-------------------------------------10--8----------
----------------------------------------------------
----------------------------------------------------

--11------11------8---------------------------------
--11--13--11--13--8--11--9--12----------------------
-------------------------9--11-10--8----------------
-------------------------------------10--8----------
----------------------------------------------------
----------------------------------------------------

--------------------------------------------------
--------------------------------------------------
--pequeño punteo----------------------------------
------------------------------------------8-------
-----------------8--10-10--8--10-10--8-10---------
--------------------------------------------------

C7
No hay que tener un auto
ni relojes de medio millón
cuatro empleos bien pagados
ser un astro de televisión

         F7
No, no, no, no pibe
            C7
para que alguien te pueda amar
          G7
porque así solo tendrás
F7          C7/9
un negocio más


No debes cambiar tu origen
ni mentir sobre tu identidad
es muy triste negar de donde vienes
lo importante es adonde vas
No, no, no, no pibe
no lo hagas que eso esta mal
si tu madre te escuchara
moriría de llorar

Solo

No hay que viajar a Europa
ni estudiar en la universidad
tener título de nobleza
o prestigio en la sociedad
No, no, no, no pibe
para que alguien te pueda amar
nada de eso es importante
en amor, ya lo verás.

C7: 8108988
F7: x8786x
G7: x109108x


La estoy pasando de memoria si hay algún pifie, perdón
Suggest correction
Give kudos to tab author, rate the tab!
1 2 3 4 5
comments
print report bad tab
guest
Wanna post a correction for this tab? Suggest correction