Oops, an error
Loading. Please wait.

Que Pena Me Das Bass Tab

45 views 1 this week
no commentswrite comment
1 2 3 4 5
3 more votes to show rating
add to favorites
launch autoscroll
font size
0
reset
guitar tuner
×
Best way to learn
"Que Pena Me Das"
Autoscroll
slow
fast
+/-
esc
set tempo
stop
Intro

G|--------------------|
D|--------------------|
A|-5-6-7s0--55-6-7s19-|
E|--------------------|(x3)

G|---------------------7----|
D|-7h9-7h9-7h9-7h9-7h9---9--|
A|--------------------------|
E|--------------------------|

G|-------------------|
D|-------------------|
A|-7---------4-5-6-7-|
E|---4-5-6-7---------|(x2)

Verso "Adonde vayas..."

G|-----------------|
D|-----------------|
A|---------4-5-6-7-|
E|-4-5-6-7---------|(x6)

G|---------------|
D|-6-7-8-9-------|
A|---------------|
E|---------6-7-8-|

"No escaparás..."

G|----------------------------------------|
D|--------------------------11-9-8--------|
A|--8-9-10-11s9---8-9-10-11--------11-9-11|
E|9-------------9-------------------------|

G|----------------------------------------|
D|----------------------------------------|
A|--8-9-10-11s9---8-9-10-11--4-4-5-5-6----|
E|9-------------9-------------------------|

Verso

Intervalo

G|------------|
D|------------|
A|------(7b)--|
E|-12s0-------|

Lo que sigue abajo: 5 vueltas (en la quinta no estira)

G|-----7------------|
D|-7h9---9p7--------|
A|-----------6---7--|
E|-------------7----|

G|------------------|
D|-7-7h9-7----------|
A|---------7-5-6-7--|
E|------------------|

G|-----7------------|
D|-7h9---7----------|
A|----------5-6-7---|
E|------------------|

G|------------------9----9----9----9|
D|-7-7h9-7-------7b---7b---7b---7b--|
A|---------7-5-6--------------------|
E|----------------------------------|

Después de éste Intervalo vuelve a repetir la parte del Verso con la Intro
incluida. La base da espacio a improvisar, lo recomiendo.

Final

G|------------|
D|------------|
A|------(7)--7|
E|-12s0------0|

G|----------------------|
D|----------------------|
A|-7-6-5-4--------------|
E|---------7-6-5-4------|(x5)

G|-------------------7h9p7---7h9p7---7----|
D|---------------7h9-------9-------9---(9)|
A|-7-6-5-6--7h10--------------------------|
E|----------------------------------------|

b: estirar la cuerda
(): nota fantasma
Suggest correction
Give kudos to tab author, rate the tab!
1 2 3 4 5
comments
print report bad tab
guest
You may want to rate the tab now too:
select rating
Wanna post a correction for this tab? Suggest correction