Oops, an error
Loading. Please wait.

Miss Evening Tab

1,987 views 1 this week
2 commentsread comments
1 2 3 4 5
please rate
add to favorites
launch autoscroll
font size
0
reset
how to read this tab
guitar tuner
Tab Pro tools
  • play this tab
  • loop segment
  • change instrument
  • show fretboard
  • metronome
×
Best way to learn
"Miss Evening"
Autoscroll
slow
fast
+/-
esc
set tempo
stop
CHords and Intro Tab by Jeremy
eMail: engelmitknarre@hotmail.com

Band: Manana
Song: Miss Evening

Band from Switzerland

CHords:
G#     466544
D#*    xxx343
Bb7    x13121
C#sus2 x46644
Fb     133111

Intro: Fb   D#*   Bb7   C#sus2   x2

G#         D#*
Hello Miss evening
Bb7     c#sus2
Nice to see you again
G#         D#*
I know you stole the sun
Bb7            C#sus2
But I hope you came to show


G#             D#*
Where did I go wrong?
Bb7      C#sus2
And am I forced to be strong?
G#               D#*
I know you won`t change
D#*              Bb7     C#sus2   D#*
I know you won`t change

        Fb   D#*
Singin` ah, a-ah
Bb7             C#sus2  D#*
Tu es, tu es le soleil
Fb   D#*
Ah, a-ah
Bb7             C#sus2  D#*
Tu es, tu es le soleil

G#         D#*
Hello Miss evening
Bb7     c#sus2
Nice to see you again
G#               D#*
I know you won`t change
D#*              Bb7     C#sus2   D#*
I know you won`t change

        Fb   D#*
Singin` ah, a-ah
Bb7             C#sus2  D#*
Tu es, tu es le soleil
Fb   D#*
Ah, a-ah
Bb7             C#sus2  D#*
Tu es, tu es le soleil


Tab:

Intro:

   Fb                D#*               Bb7               C#sus2

E-----------------1--------------------------------------------------------------|x2
B---------------1--------------------3-------------------------------------------|
G---------------------------------x----------------------------------------------|
D--3----3----3-------1----1----1---------------------3----------------2--5-------|
A-------------------------------------1----1----1--4-----3----3----3-------------|
E--------------------------------------------------------------------------------|


Verse:
It kinda goes like this: U just have to fill in a bit to make it sound more even...u know

E-------------------------------------------------1---------1------1--4-------1--4----------------|
B-------1--4------1--4-------------------------2---------2------2----------2----------------------|
G----1---------1-----------0--3------0--3---3---------3-------------------------------------------|
D-----------------------1---------1---------------------------------------------------------------|
A-------------------------------------------------------------------------------------------------|
E-------------------------------------------------------------------------------------------------|

My first tab what u think?
comments
We did not receive enough feedback on this tab! Please rate:
print report bad tab
1 2 3 4 5
2 comments total.
0 reply
WhiteStripesIII wrote on October 19 2006, 03:58 pm

Fantastic band, good tab =)

0 reply
Stodaz wrote on November 14 2006, 08:00 am

good tab ...your Fb is of course Fm but its written with the right tab :)

I want to post or [tab]
guest
You may want to rate the tab now too:
select rating
Please do not post tabs as comments. Select "correction" instead!