Oops, an error
Loading. Please wait.

Sereno Tab

89 views 1 this week
no commentswrite comment
1 2 3 4 5
3 more votes to show rating
add to favorites
launch autoscroll
font size
0
reset
how to read this tab
guitar tuner
Autoscroll
slow
fast
+/-
esc
set tempo
stop
Que onda, me llamo Orlando y esta es básicamente mi 
primera tablatura. Esta rola es un clásico muy bueno, se trata
de 'Sereno' del grupo de Costa Rica 'Manantial'


Intro
=====

        D     A    G

E|------10----5----3----5---| (2 veces)
B|------10----5----3----5---|
G|------11----6----4----6---|
D|------12--7-7--5-5--7-7---|
A|---12-12----7----5----7---|
E|------10----5----3----5---|

 D     A  G       A
Sereno es, quedarse en la cama 

   D     A  G      A               D      A  G
un rato mas, escuchar que en la cocina estas 

      A          D A  G        A           
preparando mi caféee,  que tu creas que yo 

  D        A G        A            D   G        A  
duermo aún,   y estrecharte contra mí. Eeee, Uh,Uh,Uh,Uh.


 D     A  G     A             D    A  G  
Sereno es, recordar el primer día que

        A            D    A G          A
me atrapaste con tú corazón   los dos solos no mas

D          A    G     A              D    A        G
compañia [¡ah!]  y el amante que te seducira Ah, ah 

   A              D              A         G          A          
exitados sin mas luz (que el reflejo de mi sol a tu piel)


 D     A   G    A     D      A   G  A
Sereno es...ah , ah , ah , ah  

Interlude
=========

Tiempo.  1:57                 2:04               2:10 

       
E|---------------------|------------------|---------------------------7s9-9-5s7-5-| 
B|---------------------|------------------|-------------------------7-------------|
G|--7-7h9-----9-9s11v--|--7-7s9-6---------|--s7-7-7s9-6-----------7---------------|
D|---------7v----------|----------9-7-6h7-|------------9-7-7v-7-9-----------------|
A|---------------------|------------------|---------------------------------------|
E|---------------------|------------------|---------------------------------------|

Sereno es, es sentirme que corriendo voy
que me acerco a tu respiración, mientras corro 
comprendiendo estoy, que mi meta serás siempre tú
y mi premio tambien tú.

Sereno es, enfadarnos y luego volver
y jurarnos no volverlo hacer, darme cuenta que 
sereno soy al rendirme ante tu decision de 
exitarnos sin mas luz (que el reflejo de mi sol a tu piel)

Sereno es... La la la la la la la la la la
Suggest correction
Give kudos to tab author, rate the tab!
1 2 3 4 5
comments
print report bad tab
guest
Wanna post a correction for this tab? Suggest correction