Oops, an error
Loading. Please wait.

A Mi Hogar Chords

17 views 1 this week
no commentswrite comment
1 2 3 4 5
3 more votes to show rating
add to favorites
launch autoscroll
font size
0
reset
transpose
0
reset
display chords
guitar tuner
×
Best way to learn
"A Mi Hogar"
Autoscroll
slow
fast
+/-
esc
set tempo
stop
     C     G           D
Bienvenidos a mi hogar 
     C        G          D
dijo el rey a unos mendigos
   C     G           D
las ideas que hay aqui
    C          G        D
pronto van a estar contigo.


c/wah-wah
e|-------------------------------|----------------------
B|---3/8--8--8p10--8-7-8-7-----8-|--3/8--8--8p10--8-7-8~
G|---2/7--7--7-----7-7-7-7--9--7-|--2/7--7--7-----7-7-7--
D|-------------------------------|-----------------------
A|-------------------------------|-----------------------
E|-------------------------------|-----------------------

e|-------------------------------|----------------------
B|---3/8--8--8p10--8-7-8-7-----8-|--3/8--8--8p10-10~---
G|---2/7--7--7-----7-7-7-7--9--7-|--2/7--7--7-------------
D|-------------------------------|-----------------------
A|-------------------------------|-----------------------
E|-------------------------------|------------------------


Cada uno una tarea
para todos la gloria
y si alguno se queda
otro lo viene a buscar.


Perdonamos al hermano
porque el nos perdono
siempre el cielo y el infierno 
de la mano van los dos


Es tan fácil y tan lindo
construir esta ciudad
la palabra de un amigo
en todos escucharás


Bienvenidos a mi hogar
dijo el rey a uno mendigos
las ideas que hay aquí
pronto van a estar contigo.
Suggest correction
Give kudos to tab author, rate the tab!
1 2 3 4 5
comments
print report bad tab
guest
You may want to rate the tab now too:
select rating
Wanna post a correction for this tab? Suggest correction