Oops, an error
Loading. Please wait.

Animal Humano Tab

7 views 1 this week
no commentswrite comment
1 2 3 4 5
3 more votes to show rating
add to favorites
launch autoscroll
font size
0
reset
how to read this tab
guitar tuner
×
Best way to learn
"Animal Humano"
Autoscroll
slow
fast
+/-
esc
set tempo
stop
Intro:

|--------------------------------------------------------------------------------------------------------------|
|--------------------------------------------------------------------------------------------------------------|
|----2-2-2-----------4---4------2-2-2-----------4-4----------2-2-2-----------4----------2-----1---------4---4--|
|--3-------3-2-----5---5------3-------3-2-----5-----5h3----3-------3-2-----5---5-5----3---3-2---2-----5---5----|
|--------------------------------------------------------------------------------------------------------------|
|--------------3--------------------------3----------------------------3--------------------------3------------|

F      G                 F               G
Al compas del destino yo me dedique a vivir
F               G            F
no quiero preocuparte pero mañana voy a seguir.


1° Riff (base: [F - G]):

|-----------------------------------------------------------------------------|
|--12h11-12--------------12h11-12--------12h11-12--------------11h10-11-10-8--|
|-----------11-12-12-12-----------11-12-----------11-12-12-12-----------------|
|-----------------------------------------------------------------------------|
|-----------------------------------------------------------------------------|
|-----------------------------------------------------------------------------|

    F    G             F                     G
Si al final del camino la luz esta siempre ahi
F              G              F              G    
te pido me acompañes porque mañana voy a seguir.


2° Riff (mientras canta 'vago por mi lugar...':

|----------------------------------------------------|
|----------------------------------------------------|
|--5-7-8-10---10-8-3-5---5-7-8-10-10-10---12-10-3-5--|
|----------------------------------------------------| X 2
|----------------------------------------------------|
|----------------------------------------------------|

D5    G              C    D            G
      Vago por mi lugar como animal humano, 
      G              C                 D                   G
      mis reglas naturales las que me dicen como he de actuar.
      G              C    D                G
      Nunca le tuve miedo al caudal de las almas,
      G            C              D             G
      llegara la mañana en la que dejaras de llorar, si.


1° RIFF


Al compas del destino yo me dedique a vivir
no quiero preocuparte pero mañana voy a seguir.
Si al final del camino la luz esta siempre ahi
te pido me acompañes porque mañana voy a seguir.


2° RIFF (mientras canta 'salvaje han de llamarme...'):


Salvaje han de llamarme por no tener cultura,
que saber me hace falta si yo me puedo comunicar
con mi voz y mis sueños y con esta locura 
que Dios me ha regalado para mi vida condimentar,

           C5          G5                   D5
locura de necios y soñadores, se me hace clara la oscuridad, si


1° RIFF X 2


Al compas del destino yo me dedique a vivir
no quiero preocuparte pero mañana voy a seguir.
Si al final del camino la luz esta siempre ahi
te pido me acompañes porque mañana voy a seguir.

3° Riff / Final (base: [F - G] y el 1° Riff):

|------------------------------12-10--------------------------------------|
|--12/---12-8---8---12/---12-8---------12/---12-8---8---11/h10--11/-10-8--|
|-------------9-----------------------------------9-----------------------|
|-------------------------------------------------------------------------|
|-------------------------------------------------------------------------|
|-------------------------------------------------------------------------|

|------------------------------12-10------------------------------------|
|--12/---12-8---8---12/---12-8---------12/---12-8---8-------------------|
|-------------9-----------------------------------9-----7-7-10-12--11/--|
|-----------------------------------------------------------------------| X 2
|-----------------------------------------------------------------------|
|-----------------------------------------------------------------------|

|------------------------------12-10--------------------------------------|
|--12/---12-8---8---12/---12-8---------12/---12-8---8---11/h10--11/-10-8--|
|-------------9-----------------------------------9-----------------------|
|-------------------------------------------------------------------------|
|-------------------------------------------------------------------------|
|-------------------------------------------------------------------------|
Suggest correction
Give kudos to tab author, rate the tab!
1 2 3 4 5
comments
print report bad tab
guest
You may want to rate the tab now too:
select rating
Wanna post a correction for this tab? Suggest correction