Oops, an error
Loading. Please wait.

Arbol De Leva Tab

7 views 1 this week
no commentswrite comment
1 2 3 4 5
3 more votes to show rating
add to favorites
launch autoscroll
font size
0
reset
how to read this tab
guitar tuner
×
Best way to learn
"Arbol De Leva"
Autoscroll
slow
fast
+/-
esc
set tempo
stop
Hola quiero dejar el punteo que hace durante
toda la cancion ya que la otra transcripcion no me parecio
del todo buena y aca se las dejo en 3 partes faciles

parte 1                                        parte 2

1---------------------1                        1------------1
2---8p10h8------------2                        2------------2
3----------10-9-------3     x3 y despues hace  3------------3
4---------------10----4                        4------------4
5---------------------5                        5-----3---3--5
6---------------------6                        6-----1---0--6


en el "estribillo" hace

parte 3

1---------------------------------------1
2---6-6/8-8-8-8-6/8-8-8-8-6/8-8-8-8-----2   despues de hacerlo
3---------------------------------------3   varias veces el ultimo 8
4---------------------------------------4   queda enganchadp
5---------------------------------------5   para seguir haciendo
6---------------------------------------6   la parte 1
Suggest correction
Give kudos to tab author, rate the tab!
1 2 3 4 5
comments
print report bad tab
guest
You may want to rate the tab now too:
select rating
Wanna post a correction for this tab? Suggest correction