Oops, an error
Loading. Please wait.

Carne De Gusanos Bass Tab

8 views 1 this week
no commentswrite comment
1 2 3 4 5
3 more votes to show rating
add to favorites
launch autoscroll
font size
0
reset
guitar tuner
Autoscroll
slow
fast
+/-
esc
set tempo
stop
Help us to improve Ultimate-Guitar.com Take our survey!
×
Intro:

|-----------|
|-----------|
|-----------|
|--0-1-3-0--|


Toda la canción:

|--------------------|
|--------------------|
|--------------------| X 4
|--0-1-3-0--3-2-0-2--|

Estribillo (cuando dice 'carne de gusanosss!'):

|-------------------------------------|
|---------------------5-4-------------|
|-----------------5-------7----7-5h7--|
|--5-5-5----6-4-5---------------------|

(todo se repite 3 veces menos la Intro)


Y todo de vuelta....


Puente:

|---------------------------|
|---------------------------|
|------6-9-7-6-3-7-5--------| X 2
|--0-4---------------9-5-4--|
Suggest correction
Give kudos to tab author, rate the tab!
1 2 3 4 5
comments
print report bad tab
guest
You may want to rate the tab now too:
select rating
Wanna post a correction for this tab? Suggest correction