Oops, an error
Loading. Please wait.

Carne De Gusanos Tab

19 views 1 this week
no commentswrite comment
1 2 3 4 5
3 more votes to show rating
add to favorites
launch autoscroll
font size
0
reset
how to read this tab
guitar tuner
Autoscroll
slow
fast
+/-
esc
set tempo
stop
Intro:

|-----|    |----------------------------------| 
|-----|    |-----1--------3-3-------2-2-------|
|-----|    |----------------------------------|
|-----|    |----------------------------------| X 2 
|-8h2-|    |--2----2---4------4---3------3-2--|
|-----|    |----------------------------------|


Cuando canta es algo asi (lo que toca la otra guitarra):

|-----------8h9h8-------|
|------8h11-------11-8--|
|--9-9------------------|
|-----------------------|
|-----------------------|
|-----------------------|

(se repite muchas veces).....

B        C#      C      B
Yo no se por que te pintas tanto
C#   C      B
y te maquillas, mi amor
C#   C      B
ya, al fin, quedaras hecha...
            A5
carne de gusaaaaaaaanooooooooossssss

El reloj ya no mira Paraguay
sin darte cuenta quizas
te estas pudriendo esta vez
no lo puedes ver? imposible de ver!


Sientate, ya te vienen a buscar
la mecha se consumio
pronto llegara el final
imposible hay... ay ay ay mamasita!


Solo:

|--------------5-5-4------------------5-5-4------7-----------5-5-4-----------------5-5-4------| 
|----------5-7-------7-5----------5-7-------7-5----------5-7-------7-5---------5-7-------7-5--|
|--4-----4----------------4-----4----------------------4---------------4-----4----------------|
|---------------------------------------------------------------------------------------------| 
|---------------------------------------------------------------------------------------------|
|---------------------------------------------------------------------------------------------|


[B5 - D#5 - B5 D#5] -----> (estos dos acordes se tocan en la 4° cuerda)

INTRO


Yo no se por que te pintas tanto
y te maquillas, mi amor
ya, al fin, quedaras hecha...
carne de gusaaaaaaaanooooooooossssss

El reloj ya no mira para atras
sin darte cuenta quizas
te estas pudriendo esta vez
no lo puedes ver? imposible de ver!


SOLO

Final:

INTRO
Suggest correction
Give kudos to tab author, rate the tab!
1 2 3 4 5
comments
print report bad tab
guest
Wanna post a correction for this tab? Suggest correction