Oops, an error
Loading. Please wait.

El Condor Y El Aguila Tab

35 views 1 this week
no commentswrite comment
1 2 3 4 5
3 more votes to show rating
add to favorites
launch autoscroll
font size
0
reset
how to read this tab
guitar tuner
×
Best way to learn
"El Condor Y El Aguila"
Autoscroll
slow
fast
+/-
esc
set tempo
stop
Intro: [E5]

G#m           F#     B       F#  B         F#     G#m        F#
   Vuelvo del norte, bajando voy por la quebrada, que solo estoy. 
   E        B     F#      G#m     E       B         F#         G#m
   La noche cae encima de mí      pero tengo una historia para ti: 


Cóndor Sagrado, del norte al sur vuelas trayendo tu juventud. 
La América precisa tu voz, que lamas las heridas con el sol.


C#m         B     F#
  Y se aleja mi sufrir 
C#m             B         F#      E
  cuando escucho que te acercas a mí.

Solo:

Base: [G#m] [F# B] X 2 [F# G#m F#] [E B F# G#m] X 2 --- [G#m] --- [C#m B F#] X 2 [E]

|--------------------------2-7-4---------------------------------------4-7-9-7-7---7-4-7-4-7-4-7-4-----4-7-9-7-7-4-7-9-7/----------------|       
|--4-2-2-4-4-2-2---4-2-2-4-----------4-2-4---2-2-------4-2-------------------------------------------------------------------9/----7-9/--|
|--------------------------------------------------1-4-----4-1-4-1---4-------------------------------4-----------------------------------|
|----------------------------------------------------------------------------------------------------------------------------------------|
|----------------------------------------------------------------------------------------------------------------------------------------|
|----------------------------------------------------------------------------------------------------------------------------------------|

|---------------------7-4-7-4-7-4-7-4------------------------7-4-7-4-7-4-7-4----------11/-11/----------------------------------------|
|------4-2------------------------------------4-2---------------------------------------------12/-----12-----------------------------|
|--1-1-----4-1-4--------------------------1-1-----4-1-4---------------------------4-1--------------------11-12-13-11-12-13-11-12-13--|
|------------------------------------------------------------------------------------------------------------------------------------|
|------------------------------------------------------------------------------------------------------------------------------------|
|------------------------------------------------------------------------------------------------------------------------------------|


Y se aleja mi sufrir cuando escucho que te acercas a mí.

Águila Blanca, del norte al sur vuelas trayendo juventud. 
los siglos han pasado y ya vez que yo volví a buscarte como ayer. 

Y se aleja mi sufrir cuando escucho que te acercas a mí.
Y se aleja mi sufrir cuando escucho que te acercas a mí.

Final: [G#m]
Suggest correction
Give kudos to tab author, rate the tab!
1 2 3 4 5
comments
print report bad tab
guest
You may want to rate the tab now too:
select rating
Wanna post a correction for this tab? Suggest correction