Oops, an error
Loading. Please wait.

El Cubanito Tab

63 views 1 this week
no commentswrite comment
1 2 3 4 5
3 more votes to show rating
add to favorites
launch autoscroll
font size
0
reset
how to read this tab
guitar tuner
×
Best way to learn
"El Cubanito"
Autoscroll
slow
fast
+/-
esc
set tempo
stop
Intro / Toda la Cancion:

[ch]A otra Guitarra:                 C5 C5             C5 C5             D5 D5[/ch]
|--7--------7-----------------------------------------------------------------------7------|
|----8--------8-----------------------------------------------------------------------8----|
|------7--------7---------------------------------------------------------------6-6-----7--|
|------------------------------------------------------------------------------------------|
|-------------------------7-7-7----------10-9-7-9----------10-9-7-9------------------------|
|-------------------------5-5-5------------------------------------------------------------|

           C5 C5             C5 C5             D5 D5
|-----------------------------------------------------------7------|
|-------------------------------------------------------------8----|
|-------------------------------------------------------6-6-----7--|
|------------------------------------------------------------------|
|--7-7-7----------10-9-7-9----------10-9-7-9-----------------------|
|--5-5-5-----------------------------------------------------------|


Riff:

|--------8-------------------8---------------------9-------------------9------------|
|----5-7---7-------------5-7---7---5---5-------6-8---8-------------6-8---8---6---6--|
|--7---------7---7-----7---------7---7-------7---------8---8-----7---------8---8----|
|-----------------------------------------------------------------------------------|
|-----------------------------------------------------------------------------------|
|-----------------------------------------------------------------------------------|


Con tu imagen inrompible, con decir pais flexible
siempre hablando de negocios, no te importa de nosotros
tu hogar se desquebraja, ellos que van a pensar??

B5  
  Nos distes todo en bandeja, comprame un chocolatin
  nos distes todo en bandeja, comprame un figurin
  nos distes todo en bandeja, comprame un duramil
  nos distes todo en bandeja, me mandastes hasta San Martin

RIFF

Tanto tiempo a tu lado, ni se cuando se casaron
te pusistes la careta, ante la palabra agena

Nos distes todo en bandeja, comprame un chocolatin
nos distes todo en bandeja, comprame un figurin
nos distes todo en bandeja, comprame un duramil
nos distes todo en bandeja, me mandastes hasta San Martin

RIFF

Siempre laburando a full, evadiendo tu salud
nunca tuvistes que pensar, cuidas la formalidad
hay mucho que reprochar, pero igual te llevo aca, VIEJO!!!!!

Nos distes todo en bandeja, comprame un chocolatin
nos distes todo en bandeja, comprame un figurin
nos distes todo en bandeja, comprame un duramil
nos distes todo en bandeja, me mandastes hasta San Martin

[C G D] X 4

[C5 C5 C5] X 2
[D5 D5 D5]


[C - D]:

Nos distes todo en bandeja, comprame un chocolatin
nos distes todo en bandeja, comprame un figurin
nos distes todo en bandeja, comprame un duramil
nos distes todo en bandeja, me mandastes hasta San Martin, hasta la puta que te pario...


SOLO


[C5 C5 C5] X 2
[D5 D5 D5] X 2

[C5 C5] X 2   [D5 D5] X 2


[C - D]:

Nos distes todo en bandeja, comprame un chocolatin
nos distes todo en bandeja, comprame un figurin
nos distes todo en bandeja, comprame un duramil
nos distes todo en bandeja, me mandastes hasta San Martin
Suggest correction
Give kudos to tab author, rate the tab!
1 2 3 4 5
comments
print report bad tab
guest
You may want to rate the tab now too:
select rating
Wanna post a correction for this tab? Suggest correction