Oops, an error
Loading. Please wait.

El Gato Tab

35 views 1 this week
no commentswrite comment
1 2 3 4 5
3 more votes to show rating
add to favorites
launch autoscroll
font size
0
reset
how to read this tab
guitar tuner
Autoscroll
slow
fast
+/-
esc
set tempo
stop
Help us to improve Ultimate-Guitar.com Take our survey!
×
Intro:

[C5 B5 - C5 F5] X 2

|------------------------------------------|
|------------------------------------------|
|------------------------------------------|
|--5-5-5-5-4-4-4-4-5-5-5-5-----------------|
|--3-3-3-3-2-2-2-2-3-3-3-3--3---3-3---3-3--|
|---------------------------1---0-1---0-1--|


Riff:

Base:

[C5 B5 - C5 C#5] X 4

|---------------------|
|---------------------|
|--11--10-----11--12--|
|---------------------| X 4
|---------------------|
|---------------------|


Cuando canta es todo el tiempo: [B5]

Estribillo: RIFF
Suggest correction
Give kudos to tab author, rate the tab!
1 2 3 4 5
comments
print report bad tab
guest
You may want to rate the tab now too:
select rating
Wanna post a correction for this tab? Suggest correction