Oops, an error
Loading. Please wait.

En La Altura Tab

20 views 1 this week
no commentswrite comment
1 2 3 4 5
3 more votes to show rating
add to favorites
launch autoscroll
font size
0
reset
how to read this tab
guitar tuner
×
Best way to learn
"En La Altura"
Autoscroll
slow
fast
+/-
esc
set tempo
stop
Em
 Madre tierra voy a trabajar
A
 a mi especie cuidar
C                D
 es de dia y al fin puedo ver
      Em             Riff 1
tengo tu claridad.

Em                        Riff 2
 Boca seca de tanto mascar
A                   Riff 3
 y mi espina dorsal
C                D
 Hace ruido por mucho subir
      Em              Riff 4
en el nivel del mar.

A                         Riff 5
 Pero abrá que subir igual
G                    D
lejos en la altura podre respirar.

     Em          A
y mostrarte mi locura
D          Em
para que sepas quien soy
              A
Lejos en la altura,
   D       Em
respiro mejor.
C      G   D              Em
Abreme ya, viento sabio y sin edad
C         G   D            Em
voy a esperar que vuelvas acá.

Em                        Riff 2
 Tanto tiempo que no venia
A                    Riff 6
 y extrañe de verdad
C          D
 a esa que me hizo sentir
        Em             Riff 4
que soy de este lugar.

A                       Riff 5
 Ahora voy a subir igual
G                    D
lejos en la altura podre respirar.

     Em          A
y mostrarte mi locura
D          Em
para que sepas quien soy
              A
Lejos en la altura,
   D       Em
respiro mejor.
C      G   D              Em
Abreme ya, viento sabio y sin edad
C         G   D            Em
voy a esperar que vuelvas acá.

SOLO:

  Em                         A
e|------------------------5^7-5-----5^7-5-----|
B|----7-7^8-7---7^8-7-----------8-5-------8-5-|
G|--9---------9-------9-9---------------------|
D|--------------------------------------------|
A|--------------------------------------------|
E|--------------------------------------------|

      C              D                   Em
|----------------------------------------------|
|---5-7^8-5---5----5-7^8-5---5--7^8-5----7^8---|
|-7---------7----7---------7-----------7-----9-|
|----------------------------------------------|
|----------------------------------------------|
|----------------------------------------------|

                   A                      G
|------------------------------------------------|
|-------------8----8/10--8------8^10-8----8^10-8-|
|-----7-9-7-9---9-----------9----------9---------|
|-9-9--------------------------------------------|
|------------------------------------------------|
|------------------------------------------------|

    D               Em           A
|-7-10-7--------------|
|-------10-8-10-------|
|---------------9-7-9-|
|---------------|-----|
|---------------|-----|
|---------------|-----|
                |
                Y mostrarte mi locura
D          Em
para que sepas quien soy
              A
Lejos en la altura,
   D       Em
respiro mejor.
C      G   D              Em
Abreme ya, viento sabio y sin edad
C         G   D            Em
voy a esperar que vuelvas acá.

     Em          A
y mostrarte mi locura
D          Em
para que sepas quien soy
              A
Lejos en la altura,
   D       Em
respiro mejor.
C      G   D              Em
Abreme ya, viento sabio y sin edad
C         G   D            Em
voy a esperar que vuelvas acá.


  Riff 1          Riff 2   Riff 3
e|---------------|-5^7-5-|-----5-5^8-5-----|
B|-------3-5-3-5-|-------|-5-8---------8-5-|
G|-4-4-4---------|-------|-----------------|
D|---------------|-------|-----------------|
A|---------------|-------|-----------------|
E|---------------|-------|-----------------|

   Riff 4           Riff 5  Riff 6
e|-----------------|-------|-----5-----|
B|-5/8-8-8-8^10-10-|-------|-5-8---8-5-|
G|-----------------|-------|-----------|
D|-----------------|-------|-----------|
A|-----------------|-------|-----------|
E|-----------------|-0-2-3-|-----------|
                         |
                         |
                         Ese bajo engancha Sol Que sigue

Es el tema nro 9 del nuevo disco de la mancha (espiritu)
S@ludos
rcolipe@
Suggest correction
Give kudos to tab author, rate the tab!
1 2 3 4 5
comments
print report bad tab
guest
You may want to rate the tab now too:
select rating
Wanna post a correction for this tab? Suggest correction