Oops, an error
Loading. Please wait.

Juego De Locos Tab

7 views 1 this week
no commentswrite comment
1 2 3 4 5
3 more votes to show rating
add to favorites
launch autoscroll
font size
0
reset
how to read this tab
guitar tuner
Autoscroll
slow
fast
+/-
esc
set tempo
stop
Help us to improve Ultimate-Guitar.com Take our survey!
×
loco aca saque a puro oido la intro y lo demas de la 
cancion,suena bastante bien y es muy facil.

INTRO X2:

BASE CON [G-D-A]

e|----------------|----------------|--------------|-----------------|
B|--7/8--7--------|--7/8--7----10
G|----------9-----|----------------|----------9---|-----------------|
D|-------------7--|----------------|------------7-|-7-9-7/9/7/9-8-7-|
A|----------------|----------------|--------------|-----------------|
E|----------------|----------------|--------------|-----------------|


     G    D     A      G   D    A
Les dieron una mente para vivir mejor
     G    D     A          G     D    A
y ellos la emplearon para amar este motor
      G     D    A       G     D     A
que quema tu cabeza, que no conoce amor,
      G    D     A           G   D    A
que apaga lentamente el fuego de tu corazón.

INTRO X2

No tengo ya recuerdos del tiempo que pasó,
un hombre embalsamado me enseño a decirte no,
me quema la cabeza tu fuego aterrador,
el viento da en la cara y oigo gritos de dolor
(por eso digo que...)

 G   D  A       G   D   A
Córtenla, dejen de tomar un poco
Yo quiero bajarme de este juego de locos
Legalizenla, dejen de tomar un poco
Yo quiero bajarme de este juego de locos.

INERMEDIO: G     D

y despues hace

A|-------------------|-------------------|
E|-5-5-5-3-3-5-5-3-5-|-5-5-5-3-3-5-5-3-5-|

y vuelve a [G-D] y repite eso otr ves

INTRO X2

CORO X2


es facil la cancion.....aguante la mancha locoooo!!!!
Suggest correction
Give kudos to tab author, rate the tab!
1 2 3 4 5
comments
print report bad tab
guest
You may want to rate the tab now too:
select rating
Wanna post a correction for this tab? Suggest correction