Oops, an error
Loading. Please wait.

La Marcha Tab

25 views 1 this week
no commentswrite comment
1 2 3 4 5
3 more votes to show rating
add to favorites
launch autoscroll
font size
0
reset
how to read this tab
guitar tuner
Autoscroll
slow
fast
+/-
esc
set tempo
stop
1° Riff:

|-----------------------| 
|---------9h12-11-10-9--|
|--10-11----------------|
|-----------------------| X 4
|-----------------------|
|-----------------------|

2° Riff:

|-------------------------|       |---------|
|---------11h14-13-12-11--|       |---------|
|--12-13------------------|       |---------|
|-------------------------| X 4   |---------|
|-------------------------|       |--9--11--|
|-------------------------|       |--7--9---|

----------------------------------------------------------------------

D#5                   F#5 G#5     D#5                          F#5 G#5                
La miseria ya no te frecuenta,    vos caistes pero bien para vos
otros te sostienen el piso, y no te importa un carajo!

1° RIFF

A vos ya nadie te tira el bofe, en el barrio sos desconocido
ya no hablamos el mismo lenguaje y tomamos mismo micro

1° RIFF


2° RIFF

Las cachorras te lamen el orto, se derriten por un par de gramos
vos jugas con las cartas marcadas, con la ley a tu costado!

1° RIFF

Ya tu voz no responde a mis sienes ni tu baba se mezcla en el rio
tu cancion no es el tipico grito, popular que esta vencido

1° RIFF

Final:

[D#5 - F#5 G#5] X 4

[D#5 F5* F#5* G#5* - A#5* B#5* ]

[D#5 C5 A#5 G#5] X 12

[D#5]

*(los, marcados, F5, F#5 y G#5 de esta ultima parte se toca en la 5° cuerda)

*(los, marcados, A#5 y B#5 se tocan en la 4° cuerda)
Suggest correction
Give kudos to tab author, rate the tab!
1 2 3 4 5
comments
print report bad tab
guest
Wanna post a correction for this tab? Suggest correction