Oops, an error
Loading. Please wait.

La Planta Tab

25 views 1 this week
no commentswrite comment
1 2 3 4 5
3 more votes to show rating
add to favorites
launch autoscroll
font size
0
reset
how to read this tab
guitar tuner
×
Best way to learn
"La Planta"
Autoscroll
slow
fast
+/-
esc
set tempo
stop
Este es el primer riff (se repite varias veces en la canción)
-------------------------------------------------------
-13-12------13-12--------------------------------------
-------10~--------9~----------7-9------------7b-7p5----
-----------------------7-9-10-----7-5-7~-5p7--------7--
-------------------------------------------------------
-------------------------------------------------------

El solo...
----------------------------------------------------------------------------------------------------------------------------------------
---------------------------------------------------------------------------------------------13---13---13-15b-13p13p15-12p13p12-10p12p10
------------------9-7--------------------------------9-9p10p9---------/12-10-9~-9p10p9~---/14---14---14---------------------------------
-7-9-10--------5------9-9p10p9-5-5/7~-------9-10-12-----------12-10-9-------------------------------------------------------------------
--------7-8~--------------------------10-12---------------------------------------------------------------------------------------------
----------------------------------------------------------------------------------------------------------------------------------------

-----------------12-13---------------12-13-15~----15-----------------------------------15----17----15-----------------------------------
-----------13-15-------15-13~--13-15------------17--17-15\13-15-15-13-------13------15----15----15----15-13------------13---------------
-12-12/14-------------------------------------------------------------14-12----14~--------------------------14~--14-12----14~-----------
----------------------------------------------------------------------------------------------------------------------------------------
----------------------------------------------------------------------------------------------------------------------------------------
----------------------------------------------------------------------------------------------------------------------------------------

----------------------------------------------------------------------------------------------------------------------------------------
----------------------------------------------------------------------------------------------------------------------------------------
-9~-7---7------------------------------------/7-/9~--/7---------------------------------------------------------------------------------
-----10---10-9-10~--10-9-10-9-10-9-5/7~--/10-----------10--5/7~-------------------------------------------------------------------------
----------------------------------------------------------------------------------------------------------------------------------------
----------------------------------------------------------------------------------------------------------------------------------------

El segundo riff (suena al final unas 4 veces)
-------------------------------------------
-------------------------------------------
-------------------------------------------
-10-9-7---7-10-9-7---------------7-5-----2-
--------8----------7-------5-7~------7-3-0-
---------------------5-7-8-----------------
Suggest correction
Give kudos to tab author, rate the tab!
1 2 3 4 5
comments
print report bad tab
guest
You may want to rate the tab now too:
select rating
Wanna post a correction for this tab? Suggest correction