Oops, an error
Loading. Please wait.
23 views 1 this week
no commentswrite comment
1 2 3 4 5
3 more votes to show rating
add to favorites
launch autoscroll
font size
0
reset
guitar tuner
×
Best way to learn
"Lodi"
Autoscroll
slow
fast
+/-
esc
set tempo
stop
Intro:

|-------------------------------------|
|-------------------------------------|
|--------------------3--3-3-----------| X 2
|--3--3-3---3--3-3------------3--3-3--|

1° Parte (Cuando canta 'hace algún tiempo atrás...'):

|-----------------------------------------------------------------------------------------------|
|------------------5-7-5------------------------------------------------------------------------|
|--------------2-5-------7-5----3--3-3--5--------------------------4-6-4--------3--3-3--5--5-5--|
|--3--3-3----3----------------------------3--3-3---3--3-2----0-3-6-------6-4--------------------|


cuando canta '..las cosas fueron mal...':

|-------------------------------------|
|-------------------------------------|
|--------------------3--3-3-----------|
|--3--3-2---0--0-0------------3--3-3--|

cuando canta '...Solo me vuelvo a casa otra vez...':

|-------------------------------------|
|-------------------------------------|
|-----------5--5-5---3--3-3-----------|
|--3--3-3---------------------3--3-3--|


2° Parte (cuando dice '...viajo en trenes del infierno...'):

|---------------------------------------------------------------------------------------|
|---------------------------------------------------------------------------------------|
|-------------------5-3--3--3-3----------------------------4-6-4--------3--3-3--5--5-5--|
|--3--3-3---3--3--3---------------3--3-3---3--3-2----0-3-6-------6-4--------------------|

cuando canta '..se acabó el tiempo y el dinero...':

|-------------------------------------|
|-------------------------------------|
|--------------------3--3-3-----------|
|--3--3-2---0--0-0------------3--3-3--|

cuando canta '...Solo me vuelvo a casa otra vez...':

|-------------------------------------|
|-------------------------------------|
|-----------5--5-5---3--3-3-----------|
|--3--3-3---------------------3--3-3--|


INTRO


3° Parte: (Todo igual que la 1° parte)


4° Parte:

|-------------------------------------------------------------------|
|-------------------------------------------------------------------|
|--5---5-5-5--------------------------------------------------------|
|-------------5---5-5-5--0-0-0-0-0-0-0-0-0-0-0-0-0-0-0-0-0-0-0-0-0--|


cuando canta '...si solo tuviera un techo...':

|---------------------------------------------------------------------------|
|---------------------------------------------------------------------------|
|----------------------5-5-5-5-5----------------------------5--5-5----------|
|--5--5-5-5--5--5-5-5-------------5--5-5---5--5-5---2--2-2----------0--0-0--|

cuando canta 'pero ya vez...':

|-----------------------------------|
|-----------------------------------|
|-------------------5--5-5----------|
|--5--5-5---2--2-2----------5--5-5--|

cuando canta '...Solo me vuelvo a casa otra vez...':

|----------------------------------------------|
|----------------------------------------------|
|-------------7-7-7-7-7--5-5-5-5-5-------------| X 2
|--5-5-5-5-5------------------------5-5-5-5-5--|


Base del Punteo de la guitarra:

|-------------------------------------|
|-------------------------------------|
|--------------------5--5-5-----------| X 3
|--5--5-5---5--5-5------------5--5-5--|
Suggest correction
Give kudos to tab author, rate the tab!
1 2 3 4 5
comments
print report bad tab
guest
You may want to rate the tab now too:
select rating
Wanna post a correction for this tab? Suggest correction