Oops, an error
Loading. Please wait.

Lodi Tab

58 views 1 this week
no commentswrite comment
1 2 3 4 5
3 more votes to show rating
add to favorites
×
Save as Personal and add changes to this tab that will be seen only by you. Learn more ›
×
You can save this tab as Personal to edit and correct it or add notes. All changes will be seen only by you. Learn more »
save as personal
new!
launch autoscroll
font size
0
reset
how to read this tab
guitar tuner
Autoscroll
slow
fast
+/-
esc
set tempo
stop
Riff 1

----------------------------------------------
----------------------------------------------
---4-4---5-5/7-7-------4-5-5-5-5p4------------
-----------------------------------------7-5--
----------------------------------------------
----------------------------------------------


G                                                  C                      G
Hace algún tiempo atrás, la ruta tomé y me fuí,
G                                  Em       C                          D
buscando fama y fortuna, algo porque vivir.
G                  Em                  C                              G
Las cosas fueron mal, ya conoces la canción:
G D C Riff 2 G
Solo, me vuelvo a casa otra vez.

Riff2
-------------------------------
---8-10-10(12)-10p8---8--
-9-----------------------9----
-------------------------------
-------------------------------
-------------------------------


Viajo en trenes del infierno, no sé bien adonde voy;
llegaré hasta donde pueda, hace tanto tiempo que no estoy.
Se acabo el tiempo y el dinero, mis amigos partieron ayer.
Solo, me vuelvo a casa otra vez.

Mi hermano ayer me dijo que mi camino estuvo bien, 
pero perdí mis convicciones y hoy le canto solo a él.
Yo nací donde siempre es de noche, también mi vida oscureció.
Solo, me vuelvo a casa otra vez.

(Parte instrumental)

D5-A5-E5

Modula a A

A5                                          D5                              A5
Si solo tuviera un techo donde tocar mi canción,
A5                                  F#5      D5                          E5
y que la gente me escuche cantar con el corazón.

A5                              F#5                      D5                                  A5
Pero ya ves, hay que volver, en la estación me espera el tren.
A5             E5                              D5      Riff 3 A
Solo, me vuelvo a casa otra vez.

Riff 3
---------------------------
----2-4-4(6)-4p2---2---
-4------------------4-----
---------------------------
---------------------------
---------------------------

Riff final

-----------------------------------------------------------------------------
--------2-3-2---------------2-3-2-----------------3/5-3-2h3p2----------------
--2-4----------4-2----2-4-----------4-2----2-4---------------------4-2-------
-----------------------------------------------------------------------------
-----------------------------------------------------------------------------
-----------------------------------------------------------------------------

-----7-9/10-9-7------------7-9/10-9-7-------------7-10/12---10-9h10p9--------------
-10---------------10----10---------------10-----10---------------------------12-10-
-----------------------------------------------------------------------------------
----------------------------------------------------------------------------------- 
-----------------------------------------------------------------------------------
-----------------------------------------------------------------------------------

------------------------------------------------------------------
--------2h3-2---------------2h3-2-----------------3/5-3-2h3p2-----
--2-4----------4-2----2-4-----------4-2----2-4--------------------
------------------------------------------------------------------
------------------------------------------------------------------
------------------------------------------------------------------


-------------------------------------------------
-------------------------------------------------
--4-2p0h2p0h2p0h2p0h2p0h2p0h2--------------------
-------------------------------------------------
-------------------------------------------------
-------------------------------------------------
Suggest correction
Give kudos to tab author, rate the tab!
1 2 3 4 5
comments
print report bad tab
guest
Wanna post a correction for this tab? Suggest correction