Oops, an error
Loading. Please wait.

Muy Lejos Tab

10 views 1 this week
no commentswrite comment
1 2 3 4 5
3 more votes to show rating
add to favorites
launch autoscroll
font size
0
reset
how to read this tab
guitar tuner
×
Best way to learn
"Muy Lejos"
Autoscroll
slow
fast
+/-
esc
set tempo
stop
Intro:

|--------------------|     |--------------------|
|--------------------|     |--------------------|
|--------------------|     |--------------------|
|----9-9--6-6-7-7-7--| X 3 |----9-9-------------|
|--7-7-7--4-4-5-5-5--|     |--7-7-7--7-5-4-5-7--|
|--5-----------------|     |--5------5-3-2-3-5--|


A5              C#5       D5   A5               C#5       D5
  Transitar caminos de sangre, duele el alma cuando te vas.
  La memoria de los viajantes es el tesoro mas grande que hay.
  Una vez que aprendi a escucharte ya no pude volver a hablar.
  Tu verdad puede serenarme pero igual voy a caminar muy lejos...
                              
Tocando la INTRO:

Voy tan lejos como se fue mi paz, que ya regresa.
Hoy pretendo volver a imaginar un mundo sin ley.


Riff:

|------------------------------------------------------------------------------------------------
|--------10--10---------10---------------------------------------------10--------15-14-12-14-12--
|--11h12----------11h12----7---7h9-11-11h12-9--7h9--11-11h12-9---11h12-----11h12-----------------
|------------------------------------------------------------------------------------------------
|------------------------------------------------------------------------------------------------
|------------------------------------------------------------------------------------------------

-----12---10h12h10----------------------------|
-10----------------10h12h10---8-6-------------|
----------------------------------8-6---------|
--------------------------------------88-6-7--|
----------------------------------------------|
----------------------------------------------|


Los recuerdos no me hacen daño, nunca lloro y no esta mal.
Inventando nuevos peldaños, ya habra tiempo para bajar más tarde.
Cielo azul tengo por delante, voy transpirando gotas de sal.
Tu verdad puede ser muy grande pero igual voy a caminar muy lejos...

No tan lejos como se fue mi paz, que ya regresa.
Hoy pretendo volver a imaginar un mundo sin ley.

Como se fue mi paz, que ya regresa.
Hoy pretendo volver a imaginar un mundo sin ley.


RIFF 

SOLO
Suggest correction
Give kudos to tab author, rate the tab!
1 2 3 4 5
comments
print report bad tab
guest
You may want to rate the tab now too:
select rating
Wanna post a correction for this tab? Suggest correction