Oops, an error
Loading. Please wait.

Pueblo Latino Tab

17 views 1 this week
no commentswrite comment
1 2 3 4 5
3 more votes to show rating
add to favorites
launch autoscroll
font size
0
reset
how to read this tab
guitar tuner
×
Best way to learn
"Pueblo Latino"
Autoscroll
slow
fast
+/-
esc
set tempo
stop
Intro: Cm-F-G

Cm     F G  Cm F G   Cm F   G          Cm F G
Algo comenzó         a          sonar distinto 
en el corazón del pueblo latino
Tanto soportar males del destino
hartos ya de oír los gritos del gringo

Riff 1
-------------------------------------------------------------------------- 
--------------------------------------------------------------------------
-5-7-8-7-8-7-8-7-8-7h8p7p5\10-8-----5-7-8-7-8-7-8-7-8-7--- Bis
-----------------------------------------------------------------------5--
--------------------------------------------------------------------------
--------------------------------------------------------------------------


Esa noche salió el pueblo enardecido
las mujeres y los hombres con valor
que gritaron que nunca serian vencidos
que cantaron viva la revolución

G#                      G 
y tuvieron la ayuda de dios 
G#                                      G
porque dios también piensa distinto

Riff 1

Lagrimas de amor lloraron sus hijos
la lluvia les dio un corto respiro
y los montes se llenaron de soldados
que tenían ordenes de disparar
y en América sonaron los disparos
porque el pueblo no se rinde nunca mas
G#                          G
fueron días de puro dolor
G#                                    G
pero no hay mal que dure un siglo

Riff 1

Con el tiempo muchos pueblos despertaron
muchos hombres y mujeres con valor
que juraron liberar a sus hermanos
y cantaron viva la revolución

G#                      G
y tuvieron la ayuda de dios 
G#                                      G
porque dios también piensa distinto

----------------------------------------------------------------------------
----------------------------------------------------------------------------
-5-7-8-7-8-7-8-7-8-7h8p7p5\10-8-----------------------8-7-5-----
---------------------------------------------6-6-6-6-5-5-----------------
----------------------------------------------------------------------------
----------------------------------------------------------------------------


--------------------------------------------------------------------------------------
--------------------------------------------------------------------------------------
------------------8-7-8------------------8-7---5-----------------------------------
--6-6-6-6-5-5-----------6-6-6-6-5-5---------------------------------------------
------------------------------------------------------------1-1h3-3-1h3----------
-------------------------------------------------4-3-1--3--------------------------
Suggest correction
Give kudos to tab author, rate the tab!
1 2 3 4 5
comments
print report bad tab
guest
You may want to rate the tab now too:
select rating
Wanna post a correction for this tab? Suggest correction