Oops, an error
Loading. Please wait.

Ritmo Y Blues Con Armonica Tab

74 views 6 this week
no commentswrite comment
1 2 3 4 5
3 more votes to show rating
add to favorites
launch autoscroll
font size
0
reset
how to read this tab
guitar tuner
×
Best way to learn
"Ritmo Y Blues Con Armonica"
Autoscroll
slow
fast
+/-
esc
set tempo
stop
Solo del principio:

|--------------------------------11--------11-12-11-12-11h12h11------16----11-12-11-12-11-12-11-|
|----------11h12-14--12-------------12--------------------------12-9----------------------------|
|-13/--13----------------11h7-8--------13-------------------------------------------------------|
|-----------------------------------------------------------------------------------------------| 
|-----------------------------------------------------------------------------------------------|
|-----------------------------------------------------------------------------------------------|


              Am                                              
Hoy empiezo a ver con mas claridad a los que me rodean 

    Dm                                          Am                          
Uhh Uhh, veo quien es quien y en quien puedo creer

F                     G       Am   F           G               Am
cuando parece que el mundo acabara y la tierra cede bajos mis pies

F               G     Am    F        G         Am
y cuando ya nunca amanecerá, el sol sale otra vez

Muy equivocado estuve ayer debo de decirte porque me engañe
a suponer que eran muchos los amigos en que yo podía creer
eran solamente siluetas sin creencias ni fe
eran solamente poses que aparentaban saber

F         C      G           Am    F          C    G            Am    
Hoy por la mañana sentí nuevamente esas locas ganas de quererme bien 
y sin proponérmelo me siento muy fuerte solo por saber que amo a mi mujer

2° Solo (esta incompleto):


|----------------------------------------|
|------3-4h3-3h1-5h4h5--10--10-----------|
|--2-5-------------------------11h12-14--|
|----------------------------------------| 
|----------------------------------------|
|----------------------------------------|


El dios se me distrajo por un momento y la buena suerte me abandono
y el maldito diablo sin perder tiempo en la sangre misma se me metió
y ahora ya no tengo amigos, la buena suerte me abandono
poca gente hoy me rodea, son los que me dan amor

Hoy por la mañana sentí nuevamente esas locas ganas de quererme bien 
y sin proponérmelo me siento muy fuerte solo por saber que amo a mi mujer

Hoy empiezo a ver con mas claridad a los que me rodean 
Uhh Uhh, veo quien es quien y en quien puedo confiar
cuando parece que el mundo acabara y la tierra cede bajos mis pies
y cuando ya nunca amanecerá, el sol sale otra vez
Suggest correction
Give kudos to tab author, rate the tab!
1 2 3 4 5
comments
print report bad tab
guest
You may want to rate the tab now too:
select rating
Wanna post a correction for this tab? Suggest correction