Oops, an error
Loading. Please wait.

Colly Strings chords

30,304 views 39 this week
2 commentsread comments
1 2 3 4 5
x 10
add to favorites
×
Save as Personal and add changes to this tab that will be seen only by you. Learn more ›
×
You can save this tab as Personal to edit and correct it or add notes. All changes will be seen only by you. Learn more »
launch autoscroll
font size
0
reset
transpose
0
reset
display chords
guitar tuner
edit
Autoscroll
slow
fast
+/-
esc
set tempo
stop
Author
Difficulty
Strumming
There is no strumming pattern for this song yet. and get +5 IQ
I'm still working on this..
but for now you can play it like this..
the real way to play it is up on the neck with bar chords. but this is easier for people 
learn.. and it sounds better if you don't have a full band.
some of the start are harmonics..


this is what you do for the verses

                     "take a piece of paper and draw your mind     bourbon brown that can burn my eyes
e|-------------------------------------------------------------------------------|
B|-----------------3------------------------------------3------------------------|
G|-------------2-------------------------------------2---------------------------|
D|----------0-------------------------------------0------------------------------|
A|-------------------------------------------------------------------------------|
E|-------------------------------------------------------------------------------|
                  i lost your presence underneath the bridge
e|-------------------------------------------------------------------------------|
B|-----------------3-------------------------------3-----------------------------|
G|-------------2-------------------------------2---------------------------------|
D|------------------------------------------0------------------------------------|
A|-------------------------------------------------------------------------------|
E|----------3--------------------------------------------------------------------|
                     G                                                        D
4X
Lock the door, let's talk it out,
Against the wall, hands on my mouth,
Could this be it, is it really over now?

You wore a pink t-shirt and khaki pants,
You sang your songs and danced your dance,
I unwrapped your presents underneath your feet

Nine to eleven you're getting weak,
The tile is cold, I can barely speak,
And I think she's gone, but I'll be sure for safety's keeping

then

        "if you say no,     then no it will be"
e|----------------------------------------------------------------------------------|
B|--------------3-----------3----------3--------------------------------------------|
G|----------2----------2-----------2------------------4X----------------------------|
D|----------------------------------------------------------------------------------|
A|------------------0-----------2---------------------------------------------------|
E|-------3--------------------------------------------------------------------------|
               G                  A                      B


I'll stick it at our skin, pierced with colly strings,
Just play it cool yeah, and try avoid being seen
I'll stick it at our skin, pierced for nothing


---(basically do the same thing for this part.. but you can make it sound louder by 
the Chords)------

"well yeah I saw inside the mirror and your smoking gun,
Along in the sign, the hours, the subscribing one by one,
And I fell so fast in Seth Ott's bedroom,

You said you saw it coming but you didn't see nothing,
Your eyes are on the living room your eyes are on the closet,
Don't worry about, don't worry about anything

A pity invitation to an akward house,
For pseudo-boy who would rather wear a blouse,
I sincerely saw your skin for the very first time

My curly hair and a voting booth,
Confessingly, this is the first time I've loved you,
And God I mean, God I mean it, I hope that I mean it"

"'Cause like dying young, idols got the best of me,"
e|--------------------------------------------------------------------------------|
B|--------------3-----------3----------3------------------------------------------|
G|----------2----------2-----------2----------------------------------------------|
D|-----------------------------------------------------4X-------------------------|
A|------------------0-----------2-------------------------------------------------|
E|-------3------------------------------------------------------------------------|
               G                  A                      B

Well don't stop calling, you're the reason I love losing sleep,
And the building collapse, we'll shop one for something
I'll stick it at our skin, pierced for something


email for comments or suggestions or questions.

            
            
Suggest correction
Creating personal tab
Creating personal tab
You can edit any tab online and save it as your Personal.

You can edit, replace or remove any tab part or add personal notes – all changes will be seen only by you.

Personal tabs can be accessed anytime from any device, even offline.
Learn more »
comments
print report bad tab
2 comments total.
+3 reply
Troff 103 Oct 13, 2007 09:44 AM

for the chorus it sounds better going :

e|-------------------------------------------------------------------------------|
B|---------3--------------5--------------7>8>7--------7--------------------------|
G|-------0--0-----------0---0----------0----------------0------------------------|
D|-------------------------------------------------------------------------------|
A|-------------------------------------------------------------------------------|
E|----3--------------5--------------7------------7-------------------------------|

duno how to write the 7>8>7 just hammer on the 8 and it sound cool. Anybody know the chords for when the song really kicks in?

0 reply
advilayme 10 Dec 09, 2007 12:54 PM

it sounds like C-G-D
and repeats till the end of the song.

guest
You may want to rate the tab now too:
select rating
Wanna post a correction for this tab? Suggest correction