Oops, an error
Loading. Please wait.

Cope Acoustic tab

version 3
version 3

Whole song

907 views 12 this week
1 commentread comment
1 2 3 4 5
2 more votes to show rating
add to favorites
×
Save as Personal and add changes to this tab that will be seen only by you. Learn more ›
×
You can save this tab as Personal to edit and correct it or add notes. All changes will be seen only by you. Learn more »
launch autoscroll
font size
0
reset
how to read this tab
guitar tuner
edit
Autoscroll
slow
fast
+/-
esc
set tempo
stop
I watched andy playing it live and im pretty sure this is all 100% right.
Basically the same two progressions the whole song except the second verse and the picking is super easy

C#----------------|----------------|----------------|----------------|
A#----------------|----------------|----------------|----------------|
F#----2----2------|----2----2------|----0----0------|----0----0------|  (x4)
C#--0----0--------|--0----0--------|--0----0--------|--0----0--------|
G#----------------|----------------|----------------|----------------|
C#-0-0--0-0-------|-3-3--3-3-------|-5-5--5-5-------|-5-5--5-5-------|

I want to watch it all fall until it's dark,
you both look exactly the same at night
I'd arrange the bed like crosses, watched them fall into the floor
Made me stop and forget what we were fighting for

C#--------|       --------|
A#--------|       --------|
F#-----10-| (x4)  -----9--| (x4)
C#---0----|       ---0----|
G#--------|       --------|
C#--8-8---|       --7-7---|

It's like everything that I ever have imagined's coming true today

C#----------------|----------------|----------------|----------------|
A#----------------|----------------|----------------|----------------|
F#----2----2------|----2----2------|----0----0------|----0----0------|  (x2)
C#--0----0--------|--0----0--------|--0----0--------|--0----0--------|   
G#----------------|----------------|----------------|----------------|
C#-0-0--0-0-------|-3-3--3-3-------|-5-5--5-5-------|-5-5--5-5-------|

For this next verse, the recording sounds the same as the first verse so you can just play that again, but 
watching andy play it live, he does something differently which i will tab below. They both sound cool and i
like this version better.

C#------------|------------|------------|------------|
A#------------|------------|------------|------------|
F#-----7----7-|-----5----5-|-----7----7-|-----7----7-| (x4)
C#---0----0---|---3----3---|---5----5---|---5----5---|
G#------------|------------|------------|------------|
C#--0-0--0-0--|--3-3--3-3--|--5-5--5-5--|--5-5--5-5--|

There is a cost, my friends
Of living out some other dream to find the consequence
It comes and goes in seasons around here, I thought again
There's nothing left around to yield this sorry ignorance

C#--------|       --------|
A#--------|       --------|
F#-----10-| (x4)  -----9--| (x4)
C#---0----|       ---0----|
G#--------|       --------|
C#--8-8---|       --7-7---|

If I do echo I hope you never see

C#--------|       --------|
A#--------|       --------|
F#-----2--| (x4)  -----5--| (x4)
C#---0----|       ---0----|
G#--------|       --------|
C#--0-0---|       --3-3---|

There is no one there that's waiting after me

C#--------|       --------|
A#--------|       --------|
F#-----10-| (x4)  -----9--| (x4)
C#---0----|       ---0----|
G#--------|       --------|
C#--8-8---|       --7-7---|

And I hope if there is one thing I let go it is the way that we cope

C#----------------|----------------|----------------|----------------|
A#----------------|----------------|----------------|----------------|
F#----2----2------|----2----2------|----0----0------|----0----0------|  (x2 instrumental)
C#--0----0--------|--0----0--------|--0----0--------|--0----0--------|
G#----------------|----------------|----------------|----------------|
C#-0-0--0-0-------|-3-3--3-3-------|-5-5--5-5-------|-5-5--5-5-------|


C#--------|       --------|
A#--------|       --------|
F#-----10-| (x4)  -----9--| (x4)
C#---0----|       ---0----|
G#--------|       --------|
C#--8-8---|       --7-7---|

Now I hope if there is one thing that we know

C#--------|       --------|
A#--------|       --------|
F#-----2--| (x4)  -----5--| (x4)
C#---0----|       ---0----|
G#--------|       --------|
C#--0-0---|       --3-3---|

From the way that you and I will wander on

C#--------|       --------|
A#--------|       --------|
F#-----10-| (x4)  -----9--| (x4)
C#---0----|       ---0----|
G#--------|       --------|
C#--8-8---|       --7-7---|

And we won't become a lifeless lope that wanders round and hopes for sorrow

C#----------------|----------------|----------------|----------------|
A#----------------|----------------|----------------|----------------|
F#----2----2------|----2----2------|----0----0------|----0----0------| 
C#--0----0--------|--0----0--------|--0----0--------|--0----0--------|
G#----------------|----------------|----------------|----------------|
C#-0-0--0-0-------|-3-3--3-3-------|-5-5--5-5-------|-5-5--5-5-------|

And I know!
I know!
I know! Know!
I know!

            
            
Suggest correction
Creating personal tab
Creating personal tab
You can edit any tab online and save it as your Personal.

You can edit, replace or remove any tab part or add personal notes – all changes will be seen only by you.

Personal tabs can be accessed anytime from any device, even offline.
Learn more »
Give kudos to tab author, rate the tab!
1 2 3 4 5
comments
print report bad tab
1 comment total.
+1 reply
Dhiego1512 10 May 24, 2017 02:51 AM

Good shit <3

guest
You may want to rate the tab now too:
select rating
Wanna post a correction for this tab? Suggest correction