Oops, an error
Loading. Please wait.

Simple Math Bass Tab

31 views 3 this week
no commentswrite comment
1 2 3 4 5
2 more votes to show rating
add to favorites
launch autoscroll
font size
0
reset
guitar tuner
Autoscroll
slow
fast
+/-
esc
set tempo
stop
Help us to improve Ultimate-Guitar.com Take our survey!
×
Author
Difficulty
Tuning
novice
E A D G B E
--------------------------------------------------------------------------
                            Artist - Manchester Orchestra
                          ********************************
                                Song - Simple Math
                               ********************
                            Album - Simple Math (2011) 
                           ****************************
                               Tabbed By - Ayreon77
                              **********************
--------------------------------------------------------------------------
Tuning = Standard             


INTRO
******
G|------------|-----------------|------------|-----------------|
D|------------|-----------------|------------|-----------------|
A|-------4----|--------------s--|-------4----|--------------s--|
E|-6~~-6----6-|-0--0--0-2-2-2\4-|-6~~-6----6-|-0--0--0-2-2-2\4-|


-------------------------------
00:32
VERSE 1
********
G|------------|-----------------|------------|-----------------|  
D|------------|-----------------|------------|-----------------|  
A|-------4----|--------------s--|-------4----|--------------s--|   
E|-6~~-6----6-|-0--0--0-2-2-2\4-|-6~~-6----6-|-0--0--0-2-2-2\4-|


G|------------|-----------------|------------|-----------------|  
D|------------|-----------------|------------|-----------------|  
A|-------4----|--------------s--|-------4----|-----------------|   
E|-6~~-6----6-|-0--0--0-2-2-2\4-|-6~~-6----6-|-0--0--0-2-2-2-1-|


-------------------------------
01:02
CHORUS
*******
G|-------------------|-----------------|-------------------|------------------|
D|-------------------|-----------------|-------------------|------------------|
A|-------------------|---------4-4-4---|-------------------|----------4-444---|
E|-0-0-0-00-0-0-00-1-|-2-2-2-2-------4-|-0-0-0-00-0-0-00-1-|-2-2-2-22-------4-|

01:16
G|---------|-----------------------|---------|-----------------------|
D|---------|---------------6--s-s--|---------|---------------6--s-s--|
A|---------|----s--4~~-4-4---6\8/6-|---------|----s--4~~-4-4---6\8/6-|
E|-2~~-2-2-|-2-4\5-----------------|-2~~-2-2-|-2-4\5-----------------|

01:31
G|-----------|-----------------------|-----------------------------|-----------|
D|-----------|---------------6--s-s--|-----------------------------|-----------|
A|-----------|-----4--4--4-4---6\8/6-|-2~~-2-2--22-----------------|--s---s--4-|
E|-2--2--2-2-|-4-5-------------------|-------------4-3-2--2--2-2-2-|-2\4-4\6---|


-------------------------------
01:45
BREAK
******
G|------------|-----------------|------------|-----------------|
D|------------|-----------------|------------|-----------------|
A|-------4----|--------------s--|-------4----|--------------s--|
E|-6~~-6----6-|-0--0--0-2-2-2\4-|-6~~-6----6-|-0--0--0-2-2-2\4-|


-------------------------------
02:01
VERSE 2
********
G|------------|-----------------|------------|-----------------|  
D|------------|-----------------|------------|-----------------|  
A|-------4----|--------------s--|-------4----|--------------s--|   
E|-6~~-6----6-|-0--0--0-2-2-2\4-|-6~~-6----6-|-0--0--0-2-2-2\4-|


G|------------|-----------------|--------|-----------------|  
D|------------|-----------------|--------|-----------------|  
A|-------4----|--------------s--|---4--s-|-----------------|   
E|-6~~-6----6-|-0--0--0-2-2-2\4-|-6---6\-|-0--0--0-2-2-2-1-|


-------------------------------
02:30
CHORUS
*******
G|-------------------|------------------|-------------------|------------------|
D|-------------------|------------------|-------------------|------------------|
A|-------------------|----------4-444---|-------------------|----------4-444---|
E|-0-0-0-00-0-0-00-1-|-2-2-2-22-------4-|-0-0-0-00-0-0-00-1-|-2-2-2-22-------4-|

02:45
G|---------|-----------------------|---------|-----------------------|
D|---------|---------------6--s-s--|---------|---------------6--s-s--|
A|---------|----s--4~~-4-4---6\8/6-|---------|----s--4~~-4-4---6\8/6-|
E|-2~~-2-2-|-2-4\5-----------------|-2~~-2-2-|-2-4\5-----------------|

02:59
G|-----------|-------------------------|-----------|-------------------------|
D|-----------|-----------------6--s-s--|-----------|-----------------6--s-s--|
A|-----------|----s--4--4--4-4---6\8/6-|-----------|----s--4--4--4-4---6\8/6-|
E|-2--2--2-2-|-2-4\5-------------------|-2--2--2-2-|-2-4\5-------------------|



03:14
G|---------|---------|---------|---------|---------|---------|-----------------|
D|---------|---------|---------|---------|---------|-6-6-6-6-|----------s------|
A|---------|---------|---------|-3-3-3-3-|-4-4-4-4-|---------|-4-4-4-4-4\6-4---|
E|-2-2-2-2-|-4-4-4-4-|-6-6-6-6-|---------|---------|---------|---------------6-|

03:21
G|---------|---------|---------|---------|---------|---------|---------------|
D|---------|---------|---------|---------|---------|-----6-6-|---------------|
A|---------|---------|---------|-3-3-3-3-|-4-4-4-4-|-4-4-----|-4-4-4-4-4-4---|
E|-2-2-2-2-|-4-4-4-4-|-6-6-6-6-|---------|---------|---------|-------------4-|

03:28
G|---------|---------|---------|---------|-------|---------|-------|---------|
D|---------|---------|---------|---------|-------|---------|-------|---------|
A|---------|---------|---------|-3-3-3-3-|-4---4-|-4-4-4-4-|-4---4-|-4-6-4---|
E|-2-2-2-2-|-4-4-4-4-|-6-6-6-6-|---------|---4---|---------|---4---|-------6-|

03:35
G|---------|---------|---------|---------|-------------------|
D|---------|---------|---------|---------|-------------------|
A|---------|---------|---------|-3-3-3-3-|-4-4-4-4-4-4-4---4-|
E|-2-2-2-2-|-4-4-4-4-|-6-6-6-6-|---------|---------------4---|


-------------------------------
03:41
CHORUS
*******
G|------------------------------------------|-----------------------------------|
D|----------4-----------------------6--s-s--|---------------------------6--s-s--|
A|-4--6--8-----4-------s--4--4--4-4---6\8/6-|--------------s--4--4--4-4---6\8/6-|
E|----------------2-2-4\6-------------------|-2--2--2-2-2-4\6-------------------|

03:57
G|---------------s--|--------------------|---------------------------------------s--|
D|-4--4--4-4--4-6\8-|---------------s----|---------------------------6--s----4---\11|
A|------------------|-4--4--4-4--4-4\6-4-|--------------s--4--4--4-4---6\8-6--------|
E|------------------|--------------------|-2--2--2-2-2-4\6--------------------------|


-------------------------------
04:40
OUTRO
******
G|---------|---------|---------|---------|---------|---------|-----------------|
D|---------|---------|---------|---------|---------|-6-6-6-6-|----------s------|
A|---------|---------|---------|-3-3-3-3-|-4-4-4-4-|---------|-4-4-4-4-4\6-4---|
E|-2-2-2-2-|-4-4-4-4-|-6-6-6-6-|---------|---------|---------|---------------6-|


G|---------|---------|---------|---------|---------|---------|---------------|
D|---------|---------|---------|---------|---------|-----6-6-|---------------|
A|---------|---------|---------|-3-3-3-3-|-4-4-4-4-|-4-4-----|-4-4-4-4-4-4---|
E|-2-2-2-2-|-4-4-4-4-|-6-6-6-6-|---------|---------|---------|-------------4-|


G|---------|---------|---------|---------|-------|---------|-------|---------|
D|---------|---------|---------|---------|-------|---------|-------|---------|
A|---------|---------|---------|-3-3-3-3-|-4---4-|-4-4-4-4-|-4---4-|-4-6-4---|
E|-2-2-2-2-|-4-4-4-4-|-6-6-6-6-|---------|---4---|---------|---4---|-------6-|


G|---------|---------|---------|---------|---|
D|---------|---------|---------|---------|---|
A|---------|---------|---------|-3-3-3-3-|-4-|
E|-2-2-2-2-|-4-4-4-4-|-6-6-6-6-|---------|---|



ENJOY............
Suggest correction
Give kudos to tab author, rate the tab!
1 2 3 4 5
comments
print report bad tab
guest
You may want to rate the tab now too:
select rating
Wanna post a correction for this tab? Suggest correction