Oops, an error
Loading. Please wait.

Virgin bass

version 1
version 1

Whole song

3,199 views 3 this week
2 commentsread comments
1 2 3 4 5
x 4
add to favorites
×
Save as Personal and add changes to this tab that will be seen only by you. Learn more ›
×
You can save this tab as Personal to edit and correct it or add notes. All changes will be seen only by you. Learn more »
launch autoscroll
font size
0
reset
guitar tuner
edit
Autoscroll
slow
fast
+/-
esc
set tempo
stop
Author
Difficulty
This is my first tab. i think it's 100% correct.
Intro (1:08)
G|-----------------------------------|
D|-----------------------------------| x4
A|-----------------------------------|
E|1-1--3-4-4--8-9-9--9-8-8--8h9~-----|

Chorus
G|-------------------------------------|
D|-------------------------------------| x2
A|-------------------------------------|
E|1-1-1-3-4-4-4-8-9-9-9-9-8-8-8h9~-----|

G|-----------------------------------|
D|-----------------------------------| x3
A|-----------------------------------|
E|1-1--3-4-4----9-9--9-8-8--8h9~-----|

G|----------------------------------|
D|----------------------------------|
A|----------------------------------|
E|1-1--3-4-4---9-9-9-9-8-8-8-8h9----|

Chorus
G|-------------------------------------|
D|-------------------------------------| x2
A|-------------------------------------|
E|1-1-1-3-4-4-4-8-9-9-9-9-8-8-8h9~-----|

G|-----------------------------------------|
D|-----------------------------------------|
A|-----------------------------------------|
E|-x-x-x-x-x-3-4-4-4-8-9-9-9-9-8-8-8h9~----|

G|------------------------------------|
D|------------------------------------|
A|------------------------------------|
E|1-1-1-3-4-4-4-8-9-9-9-9-8-8-8h9~----|

G|----------------|
D|----------------|x4
A|----------------|
E|-0-0-0-0-0-0-0~-|

G|--------------------------------------|
D|--------------------------------------|
A|--------------------------------------|
E|-1-1--1-3-4-4--4-8-9-9--9-8-8-8h9~----|

Chorus
G|-------------------------------------|
D|-------------------------------------| x2
A|-------------------------------------|
E|1-1-1-3-4-4-4-8-9-9-9-9-8-8-8h9~-----|

G|----------------------------------|
D|----------------------------------|x2
A|----------------------------------|
E|-4-3-2-1-0-0-0-0-9-9-9-8-8-8h9----|

G|----------------|
D|----------------|x4
A|----------------|
E|-0-0-0-0-0-0-0~-|

(Key)
h (hammer on)
~ (sustain)
x (muted note)

            
            
Suggest correction
Creating personal tab
Creating personal tab
You can edit any tab online and save it as your Personal.

You can edit, replace or remove any tab part or add personal notes – all changes will be seen only by you.

Personal tabs can be accessed anytime from any device, even offline.
Learn more »
comments
print report bad tab
2 comments total.
+1 reply
CareCore 10 Mar 17, 2012 08:19 AM

Nope. If you play this to the song you can easily hear it's the wrong notes. They should all be played 6 higher, like this:

G|-----------------------------------|
D|-----------------------------------|
A|--------------9-10-10--10-9-9—9h10-|
E|7-7--9-10-10-----------------------|

The rhythm is pretty good, but I wouldn't say this is 100% correct.

0 reply
rose_red 10 Jan 08, 2013 01:22 PM

This tab sounds terrible it's not in the right key.

guest
You may want to rate the tab now too:
select rating
Wanna post a correction for this tab? Suggest correction