Oops, an error
Loading. Please wait.

Incoherente Tab

by Mandala
8 views 1 this week
no commentswrite comment
1 2 3 4 5
3 more votes to show rating
add to favorites
launch autoscroll
font size
0
reset
how to read this tab
guitar tuner
×
Best way to learn
"Incoherente"
Autoscroll
slow
fast
+/-
esc
set tempo
stop
el "solo" de este grandioso tema

e|----------------------------------------------------------------
B|7-7-7-7-7-7-7-7-6-6-6-6-6-6-6-6-4-4-4-4-4-4-4-4-----------------
G|6-6-6-6-6-6-6-6-6-6-6-6-6-6-6-6-4-4-4-4-4-4-4-4-6-6-6-6-6-6-6-6-
D|------------------------------------------------4-4-4-4-4-4-4-4-
A|----------------------------------------------------------------
E|----------------------------------------------------------------

x2

--------------------------|--------------------------|
--7-----7-----6-----6-----|--4-----4-----------------|
-----6-----6-----6-----6--|-----4-----4--6-----6-----|
--------------------------|-----------------4-----4--|
--------------------------|--------------------------|
--------------------------|--------------------------|

----------------------------------------------------------------
7-7-7-7-7-7-7-7-6-6-6-6-6-6-6-6-4-4-4-4-4-4-4-4-----------------
6-6-6-6-6-6-6-6-6-6-6-6-6-6-6-6-4-4-4-4-4-4-4-4-6-6-6-6-6-6-6-6-
------------------------------------------------4-4-4-4-4-4-4-4-
----------------------------------------------------------------
----------------------------------------------------------------
Suggest correction
Give kudos to tab author, rate the tab!
1 2 3 4 5
comments
print report bad tab
guest
You may want to rate the tab now too:
select rating
Wanna post a correction for this tab? Suggest correction