Oops, an error
Loading. Please wait.

No Quiero Estar Con Vos Tab

14 views 1 this week
no commentswrite comment
1 2 3 4 5
3 more votes to show rating
add to favorites
launch autoscroll
font size
0
reset
how to read this tab
guitar tuner
Autoscroll
slow
fast
+/-
esc
set tempo
stop
Help us to improve Ultimate-Guitar.com Take our survey!
×
el tema completo, con intro y "solo"

E||--10-10-------10-10-------10-10-------10-10-------|
B||--------10-10-------10-10-------10-10-------10-10-|
G||--------------------------------------------------|
D||--------------------------------------------------|
A||--------------------------------------------------|
E||--------------------------------------------------|

--10-10-------10-10-------10-10-------10-10-------|
--------10-10-------10-10-------10-10-------10-10-|
--------------------------------------------------|
--------------------------------------------------|
--------------------------------------------------|
--------------------------------------------------|


--10-10-------10-10-------10-10-------10-10-------|
--------10-10-------10-10-------10-10-------10-10-|
--------------------------------------------------|
--------------------------------------------------|
--------------------------------------------------|
--------------------------------------------------|

--10-10-------10-10-------10--------|
--------10-10-------10-10-----------|
------------------------------------|
------------------------------------|
------------------------------------|
------------------------------------|

estos acordes son tapados, dejando sin tapar la nota mas aguda

----------------------------------------------|
----------------------------------------------|
--------------7-7-----------------------------|
--------7--7------7--7--------------5-5-------|
--5--5------------------------5--5------5--5--|
------------------------3--3------------------|

----------------------------------------------|
----------------------------------------------|
------------------------------------7-7-------|
--------------7-7-------------7--7------7--7--|
--------7--7------7--7--5--5------------------|
--5--5----------------------------------------|

----------------------------------------------|
----------------------------------------------|
--------------7-7-----------------------------|
--------7--7------7--7--------------5-5-------|
--5--5------------------------5--5------5--5--|
------------------------3--3------------------|

el slide en D es normal, sin tapar

--------------------------------------|
--------------------------------------|
------------------------6--7-7-6--7-7-|
--------------7-7-------6--7-7-6--7-7-|
--------7--7------7--7--4--5-5-4--5-5-|
--5--5--------------------------------|


D                     G
Dicen que ahora ya no estas más sola,
A              D
dicen que ahora siempre estas con el.
D                     G
Dicen que ahora cuando abris la boca
A                     D
es para defenderlo el no hace nada bien

A             B
y yo te digo perdiste tu chance
A             B
perdiste toda tu oportunidad
A             B
el momento para estar conmigo
G             A
porque ahora no quiero

                       D G A
No quiero estar con vos       x4

F#            D
Y ahora que vas a hacer
F#                    D
Cuando te des cuenta de quien es,
F#                  D
solamente un falso radical
F#           G              A
si volvés no voy a estar

                       D G A
No quiero estar con vos       x4

e|----------------------------|---------------------------|
B|----------------------------|---------------------------|
G|-6-7-7-7-6-7-7-7-9--7--6--7-|-6-7-7-7-6-7-7-7-9--7--7---|
D|----------------------------|---------------------------|
A|----------------------------|---------------------------|
E|----------------------------|---------------------------|

------------------------------|---------------------------|
------------------------------|---------------------------|
6-7-7-7-6-7-7-7-9--7--6-7-7-7-|--9--7--6-7-7-7-9--7--7--4-|
------------------------------|---------------------------|
------------------------------|---------------------------|
------------------------------|---------------------------|

------------------------------|---------------------------|
------------------------------|---------------------------|
--4-6-6-6-4-6-6-6-7--6--4--6--|---4-6-6-6-4-6-6-6-7--6--4-|
------------------------------|---------------------------|
------------------------------|---------------------------|
------------------------------|---------------------------|

------------------------------|
------------------------------|
--4-6-6-6-4-6-6-6-7--6--4--6--|
------------------------------|
------------------------------|
------------------------------|

G    A

                       D G A
No quiero estar con vos       x8
Suggest correction
Give kudos to tab author, rate the tab!
1 2 3 4 5
comments
print report bad tab
guest
You may want to rate the tab now too:
select rating
Wanna post a correction for this tab? Suggest correction