Oops, an error
Loading. Please wait.

Down In The Past tab

version 2
version 2

Whole song

Interactive

26,533 views 12 this week
8 commentsread comments
1 2 3 4 5
x 10
add to favorites
×
Save as Personal and add changes to this tab that will be seen only by you. Learn more ›
×
You can save this tab as Personal to edit and correct it or add notes. All changes will be seen only by you. Learn more »
launch autoscroll
font size
0
reset
how to read this tab
guitar tuner
edit
Autoscroll
slow
fast
+/-
esc
set tempo
stop
----------------------------------------------------------------------------
                             Down in the past- Mando Diao
----------------------------------------------------------------------------
Tabbed by: GuitarSpongeBob

Tuning: Standard

|Intro part 1 (2.Guitar): 1x 

e|---------------------|-----------------------------|
B|---------------------|-----------------------------|
G|---------------------|-------------------7---------|
D|-9-7-9-7-9-7-9-7-9-7-|-9-7-9-7-9-7-9-7-9-----------|
A|---------------------|-----------------------------|
E|---------------------|-----------------------------|

|Intro part 2: 1x

e|---------------------|------------------------------|
B|---------------------|------------------------------| 
G|---------------------|---------------7-9b-7---------|   
D|-9-7-9-7-9-7-9-7-9-7-|-9-7-9-7-9-7-9----------------|   
A|---------------------|------------------------------| 
E|---------------------|------------------------------|

|Intro part 3: 3x
e|---------------------|------------------------------|
B|---------------------|------------------------------|
G|-------------------7-|---------------7-9b-7---------|
D|-9-7-9-7-9-7-9-7-9---|-9-7-9-7-9-7-9----------------|
A|---------------------|------------------------------|
E|---------------------|------------------------------|

|Intro part 4: 1x
e|---------------------|-------------------------------|
B|---------------------|-------------------------------|
G|-------------------7-|---------------7-9b-7----------|
D|-9-7-9-7-9-7-9-7-9---|-9-7-9-7-9-7-9---------9---\0--|
A|---------------------|-------------------------------|
E|---------------------|-------------------------------|

|Intro for 1.Guitar: During the Intro: Part3+4) 
[    3x                                   ]  At Fourth time 
   B   B      Em   Em    D   D     F#              B
e|---------------------|-2---2------------|  |-------------|
B|---------------------|-3---3------------|  |-------------|
G|-4---4---------------|-2---2------------|  |-----4-------|
D|-4---4------2---2----|-0---0-----4---4--|  |-----4-------|
A|-2---2------2---2----|-----------4---4--|  |-----2-------|
E|------------0---0----|-----------2---2--|  |-------------|
                                                 Well,...


|Verse: 2x

       B            E        E            B 
e|----------------------------------------------------------|
B|----------------------------------------------------------|
G|-----4------------1--------1------------4-----------------|
D|-----4------------2--------2------------4-----------------|
A|-----2------------2--------2------------2-----------------|
E|------------------0--------0------------------------------|
 Well,I don`t... motorbaby,  see you through.

|Bridge: 2.Guitar:
   D           F#m        B           
e|-2------------------------------|
B|-3------------------------------|
G|-2----------------------4-------|
D|-0-------------4--------4-------|
A|---------------4--------2-------|
E|---------------2----------------|
But since...there,where...be...

2.Guitar: Intro part 1

1.Guitar:
    D         E          F#m
e|--2--------------------------------------------|
B|--3--------------------------------------------|
G|--2---------1----------------------------------|
D|--0---------2-----------4----------------------|
A|------------2-----------4-(16x)----------------|
E|------------0-----------2----------------------|
I'm get...  dressing...  weather...

||Chorus: 
|Guitar 1:
 Part1:2x
e|-----------------2-------------------|
B|-----------------3-------------------|
G|-4---------------2-------------------|
D|-4-------2-------0---------4---------|
A|-2-------2-----------------4---------|
E|---------0-----------------2---------|
 Down... past... mother... last

 Part2 1x:  
   G      A        D        F#     G     A        B
e|-3---------------2------------|--3----------------------------|
B|-0------2--------3------------|--0-----2----------------------|
G|-0------2--------2------------|--0-----2--------4-------------|
D|-0------2--------0---------4--|--0-----2--------4-------------|
A|-2------0------------------4--|--2-----0--------2-------------|
E|-3-------------------------2--|--3----------------------------|
 Down... past... mother... last   she...sure...remember 

|2.Guitar: During the Chorus:

e|-7---------------------|--------9--9--10-----9-----------------------|
B|--7--8--8-7---------7--|-8---8---10-----10----9----8--8--10-10--12~ -|
G|°--7---7----7-----9---°|---7--------------11---10----7-----9---------|
D|--------------9-8------|---------------------------------------------|
A|°---------------------°|---------------------------------------------|
E|-----------------------|---------------------------------------------|

|Intro part 3: 2x

|Verse:
|Bridge:
|Chorus:
|Solo: 2.Guitar:

e|-------------------------------------|-----------------------------------|
B|----------7----------------7-7-------|----------------------------7------|
G|°-----7-9------7-9-7---7-9-----9-7--°|-----------7--7--7-9-7-9-7-9--9-7--|
D|--9-9--------9-------9-------------7-|-9-7-9-7-9---9--9----------------7-|
A|°-----------------------------------°|-----------------------------------|
E|-------------------------------------|-----------------------------------|

e|----------------------------------7-10-7------|
B|-----------------------------7-10-------------|
G|-----------7--7--7-9-7-9-7-9------------------|
D|-9-7-9-7-9---9--9-----------------------------|
A|----------------------------------------------|
E|----------------------------------------------|

|Bass Solo
|2.Guitar: Almost the same as during the chorus
|Chorus:

|End:|1.Guitar: Chorussriffs 
|2.Guitar: Introriff: part 3: 4x

| b  bend
| ~  vibrato
===========================================================================

            
            
Suggest correction
Creating personal tab
Creating personal tab
You can edit any tab online and save it as your Personal.

You can edit, replace or remove any tab part or add personal notes – all changes will be seen only by you.

Personal tabs can be accessed anytime from any device, even offline.
Learn more »
comments
print report bad tab
8 comments total. Showing first comments.
0 reply
GuitarSpongeBob 191 Jul 04, 2006 03:36 AM

Sorry, B(?) is Bm

0 reply
Guitar Grizzly 60 Jul 05, 2006 04:35 AM

I Think this tab is the only right tab for DOWN IN THE PAST

0 reply
Guitar Grizzly 60 Jul 06, 2006 05:51 AM

This tab is made by a Ultimate Guitar God

guest
You may want to rate the tab now too:
select rating
Wanna post a correction for this tab? Suggest correction