Oops, an error
Loading. Please wait.

Last Time Infected Me Bass Tab

81 views 1 this week
no commentswrite comment
1 2 3 4 5
please rate
add to favorites
launch autoscroll
font size
0
reset
guitar tuner
Autoscroll
slow
fast
+/-
esc
set tempo
stop
Help us to improve Ultimate-Guitar.com Take our survey!
×
Author
Difficulty
novice
intro-main riff
G|---------------------------------------|
D|---------------------------------------|
A|--77h10-10-10--------------------------|
E|---------------10-10h7-7-7-----7h10----|

verse
G|--------------------------------------------------------------------------|
D|----------7h9~----7h9~----------------------------------------------------|
A|---7------------7-----------------77h10-10-10-----------------------------|
E|-------------------------5~--7~---------------10-10h7-7-7-----7h10--------|
  
pre-chorus                  
G|--------------------------| 
D|--------------------------| 
A|----------77777-----------| 
E|--55555-7-------55555-7---| 
   
chorus ("the last time infected me")
G|----------------|   |--------------------|
D|----------------|x4 |------7h9999--------|x4
A|----7777--------|   |-7777---------------|
E|----------7777--|   |--------------------|

verse
G|----------------------------|  |---------------------------|
D|----5-7-9-7-5---------------|x4|---------------------------|x4
A|--7--------------5--------5-|  |----5--------5-------------|(or something
E|---------------7---7--5-7---|  |------7-5-7----7-5-7-------| like that)

main riff
G|----------------------------------------|
D|----------------------------------------|
A|-77h10-10-10----------------------------|
E|----------------10-10h7-7-7-----7h10----|

verse
G|------------------------------------------------------|
D|----------7h9999----7h9999-----7h9999-7h9999-7777-9999|
A|---7777--------------------7777-----------------------|
E|------------------------------------------------------|

main riff once again
G|----------------------------------------|
D|----------------------------------------|
A|-77h10-10-10----------------------------|
E|----------------10-10h7-7-7-----7h10----|   

     
pre-chorus                  
G|--------------------------| 
D|--------------------------| 
A|----------77777-----------| 
E|--55555-7-------55555-7---| 
   
chorus ("the last time infected me")
G|----------------|   |--------------------|
D|----------------|x4 |------7h9999--------|x4
A|----7777--------|   |-7777---------------|
E|----------7777--|   |--------------------| 
         
solo 
G|----------------------------------------|
D|----------------------------------------|
A|-77h10-10-10----------------------------|
E|----------------10-10h7-7-7-----7h10----|  
Suggest correction
Give kudos to tab author, rate the tab!
1 2 3 4 5
comments
print report bad tab
guest
You may want to rate the tab now too:
select rating
Please do not post tabs as comments. Select "correction" instead!