Oops, an error
Loading. Please wait.

Ochrasy tab

version 1
version 1

Whole song

Interactive

20,565 views 3 this week
no commentswrite comment
1 2 3 4 5
x 4
add to favorites
×
Save as Personal and add changes to this tab that will be seen only by you. Learn more ›
×
You can save this tab as Personal to edit and correct it or add notes. All changes will be seen only by you. Learn more »
launch autoscroll
font size
0
reset
how to read this tab
guitar tuner
edit
Autoscroll
slow
fast
+/-
esc
set tempo
stop
Difficulty
Artist: Mando Diao
Song: Ochrasy
Album: Ode to Ochrasy
Date: 01.09.2006
Tabber: Robert Engelhoven

Comment: I'm not sure bout the lyrics, sometimes I filled up a word, that sounds similar 
the price of loosing the sense.
I'm too lazy to figure out the pickings of the refreain. Just shredding the chords 
good enough. Please send any corrections to: Robert@Engelhoven.de


Verse:
  C                        C7
|---------------------------------------------|
|-1---11---11---11---11---11---11---11--------|
|---0----0----0----0----3----3----3----3------|
|---------------------------------------------|
|-3----3----3----3----3----3----3----3--------|
|---------------------------------------------|

  C6                  C
|---------------------------------------------|
|11---11---11---11---11---11---11---11--------|
|---2----2----2----2----0----0----0----0------|
|---------------------------------------------|
|-3----3----3----3----3----3----3----3--------|
|---------------------------------------------|

Ref:
                          G
|-------------------------1-------------------|
|-------------------------1-------------------|
|-------------------------0-------------------|
|-------------------------0-------------------|
|-------------------------2-------------------|
|----------0----1----2----3-------------------|
      And I'm dreaming bout times....

                                      Em
|-------------------------------------0-------|
|-------------------------------------0-------|
|-------------------------------------0-------|
|-------------------------------------2-------|
|-------------------------------------2-------|
|----------------------3----2----1----0-------|
                      ...times when I lived...

   Am
...own land called Ochrasy.
D
That place was everything to me...
G
It's all there in my fantasy...
Suggest correction
Creating personal tab
Creating personal tab
You can edit any tab online and save it as your Personal.

You can edit, replace or remove any tab part or add personal notes – all changes will be seen only by you.

Personal tabs can be accessed anytime from any device, even offline.
Learn more »
comments
print report bad tab
guest
Wanna post a correction for this tab? Suggest correction