Oops, an error
Loading. Please wait.

Ochrasy tab

version 2
version 2

Whole song

Interactive

44,906 views 27 this week
6 commentsread comments
1 2 3 4 5
x 21
add to favorites
×
Save as Personal and add changes to this tab that will be seen only by you. Learn more ›
×
You can save this tab as Personal to edit and correct it or add notes. All changes will be seen only by you. Learn more »
launch autoscroll
font size
0
reset
how to read this tab
guitar tuner
edit
Autoscroll
slow
fast
+/-
esc
set tempo
stop
Author
Difficulty
intermediate
[Intro]
e|------------------------------------------------|
B|-1---1-1---1-1---1-1---1-1---1-1---1-1---1-1---1|
G|---0-----0-----0-----0-----3-----3-----3-----3--|
D|------------------------------------------------|
A|-3-----3-----3-----3-----3-----3-----3-----3----|
E|------------------------------------------------|

e|------------------------------------------------|
B|-1---1-1---1-1---1-1---1-1---1-1---1-1---1-1---1|
G|---2-----2-----2-----2-----0-----0-----0-----0--|
D|------------------------------------------------|
A|-3-----3-----3-----3-----3-----3-----3-----3----|
E|------------------------------------------------|
 
[Verse 1]
   I feel dizzy...   and I'm too blind... 
e|------------------------------------------------|
B|-1---1-1---1-1---1-1---1-1---1-1---1-1---1-1---1|
G|---0-----0-----0-----0-----3-----3-----3-----3--|
D|------------------------------------------------|
A|-3-----3-----3-----3-----3-----3-----3-----3----|
E|------------------------------------------------|

   on outside...     window...    
e|------------------------------------------------|
B|-1---1-1---1-1---1-1---1-1---1-1---1-1---1-1---1|
G|---2-----2-----2-----2-----0-----0-----0-----0--|
D|------------------------------------------------|
A|-3-----3-----3-----3-----3-----3-----3-----3----|
E|------------------------------------------------|

I'm turning on...  watch the news...
e|------------------------------------------------|
B|-1---1-1---1-1---1-1---1-1---1-1---1-1---1-1---1|
G|---0-----0-----0-----0-----3-----3-----3-----3--|
D|------------------------------------------------|
A|-3-----3-----3-----3-----3-----3-----3-----3----|
E|------------------------------------------------|

 I fall back...      again...   I'm dreaming... 
e|------------------------------------------------|
B|-1---1-1---1-1---1-1---1-1---1-1---1-1---1------|
G|---2-----2-----2-----2-----0-----0-----0--------|
D|------------------------------------------------|
A|-3-----3-----3-----3-----3-----3-----3----------|
E|-------------------------------------------0-1-2|

[Chorus]
  times...         lived...         
e|-------------3*----------------------0*---------|
B|-------3-------3-------------3---3-----3-------3|
G|-----4*--4-------4---------1-------1-----1---1--|
D|---5-------5------------------------------------|
A|------------------------------------------------|
E|-3-----3-----3-----3-2-1-0-----0-----0-----0----|

 my own...         
e|------------------------------------------------|
B|-1---1-1---1-1---1-1---1-1---1-1---1-1---1-1---1|
G|---2-----2-----2-----2-----2-----2-----2-----2--|
D|------------------------------------------------|
A|-0-----0-----0-----0-----0-----0-----0-----0----|
E|------------------------------------------------|

  place...
e|-2*----2*----2*----2*----2*----2*----2*----2*---|
B|---1-----1-----1-----1-----1-----1-----1-----1--|
G|-----2-----2-----2-----2-----2-----2-----2-----2|
D|-0-----0-----0-----0-----0-----0-----0-----0----|
A|------------------------------------------------|
E|------------------------------------------------|

it's all...         I  be-  lieve it
e|-1*----1*----1*----1*----1*----0*---------------|
B|---0-----0-----0-----0-----0-----0---0---3-1----|
G|-----0-----0-----0-----0-----0-----0---0-------0|
D|------------------------------------------------|
A|------------------------------------------------|
E|-3-----3-----3-----3-----3-----3-----3-----3----|

[Verse 2] 
   I feel dizzy...   and I'm too blind... 
e|------------------------------------------------|
B|-1---1-1---1-1---1-1---1-1---1-1---1-1---1-1---1|
G|---0-----0-----0-----0-----3-----3-----3-----3--|
D|------------------------------------------------|
A|-3-----3-----3-----3-----3-----3-----3-----3----|
E|------------------------------------------------|

   on outside...     window...    
e|------------------------------------------------|
B|-1---1-1---1-1---1-1---1-1---1-1---1-1---1-1---1|
G|---2-----2-----2-----2-----0-----0-----0-----0--|
D|------------------------------------------------|
A|-3-----3-----3-----3-----3-----3-----3-----3----|
E|------------------------------------------------|

I'm turning on...  watch the news...
e|------------------------------------------------|
B|-1---1-1---1-1---1-1---1-1---1-1---1-1---1-1---1|
G|---0-----0-----0-----0-----3-----3-----3-----3--|
D|------------------------------------------------|
A|-3-----3-----3-----3-----3-----3-----3-----3----|
E|------------------------------------------------|

 I fall back...      again...   I'm dreaming... 
e|------------------------------------------------|
B|-1---1-1---1-1---1-1---1-1---1-1---1-1---1------|
G|---2-----2-----2-----2-----0-----0-----0--------|
D|------------------------------------------------|
A|-3-----3-----3-----3-----3-----3-----3----------|
E|-------------------------------------------0-1-2|

[Chorus] 
(A few minor changes in this one)
  times...         lived...         
e|-------------3*----------------------0*------0*-|
B|-------3-------3-------------3---3-----3--------|
G|-----4*--4-------4---------1-------1-----1-----1|
D|---5-------5------------------------------------|
A|------------------------------------------------|
E|-3-----3-----3-----3-2-1-0-----0-----0-----0----|

 my own...         
e|------------------------------------------------|
B|-1---1-1---1-1---1-1---1-1---1-1---1-1---1-1---1|
G|---2-----2-----2-----2-----2-----2-----2-----2--|
D|------------------------------------------------|
A|-0-----0-----0-----0-----0-----0-----0-----0----|
E|------------------------------------------------|

  place...
e|-2*----2*----2*----2*----2*----2*----2*----2*---|
B|---1-----1-----1-----1-----1-----1-----1-----1--|
G|-----2-----2-----2-----2-----2-----2-----2-----2|
D|-0-----0-----0-----0-----0-----0-----0-----0----|
A|------------------------------------------------|
E|------------------------------------------------|

it's all...         I  be-  lieve it
e|-1*----1*----1*----1*----1*----0*---------------|
B|---0-----0-----0-----0-----0-----0---3---3-1----|
G|-----0-----0-----0-----0-----0-----0---0-------0|
D|------------------------------------------------|
A|------------------------------------------------|
E|-3-----3-----3-----3-----3-----3-----3-----3----| 

[Verse 3]
   I feel dizzy...   and I'm too blind... 
e|------------------------------------------------|
B|-1---1-1---1-1---1-1---1-1---1-1---1-1---1-1---1|
G|---0-----0-----0-----0-----3-----3-----3-----3--|
D|------------------------------------------------|
A|-3-----3-----3-----3-----3-----3-----3-----3----|
E|------------------------------------------------|

   on outside...     window...    
e|------------------------------------------------|
B|-1---1-1---1-1---1-1---1-1---1-1---1-1---1-1---1|
G|---2-----2-----2-----2-----0-----0-----0-----0--|
D|------------------------------------------------|
A|-3-----3-----3-----3-----3-----3-----3-----3----|
E|------------------------------------------------|

I'm turning on...  watch the news...
e|------------------------------------------------|
B|-1---1-1---1-1---1-1---1-1---1-1---1-1---1-1---1|
G|---0-----0-----0-----0-----3-----3-----3-----3--|
D|------------------------------------------------|
A|-3-----3-----3-----3-----3-----3-----3-----3----|
E|------------------------------------------------|

 I fall back...      again...   I'm dreaming... 
e|------------------------------------------------|
B|-1---1-1---1-1---1-1---1-1---1-1---1-1---1------|
G|---2-----2-----2-----2-----0-----0-----0--------|
D|------------------------------------------------|
A|-3-----3-----3-----3-----3-----3-----3----------|
E|-------------------------------------------0-1-2|

[Chorus] 
(A couple of changes in this one too)
  times...         lived...         
e|-------------3*----------------------0*----0*---|
B|-------3-------3-------------3---3-----3--------|
G|-----4*--4-------4*--------1-------1-----1-----1|
D|---5-------5------------------------------------|
A|------------------------------------------------|
E|-3-----3-----3-----3-2-1-0-----0-----0-----0----|

 my own...         
e|------------------------------------------------|
B|-1---1-1---1-1---1-1---1-1---1-1---1-1---1-1---1|
G|---2-----2-----2-----2-----2-----2-----2-----2--|
D|------------------------------------------------|
A|-0-----------0-----------0-----------0----------|
E|-------0-----------0-----------0-----------0----|

  place...
e|-2*----2*----2*----2*----2*----2*----2*----2*---|
B|---1-----1-----1-----1-----1-----1-----1-----1--|
G|-----2-----2-----2-----2-----2-----2-----2-----2|
D|-0-----0-----0-----0-----0-----0-----0-----0----|
A|------------------------------------------------|
E|------------------------------------------------|

it's all...         I  be-  lieve it
e|-1*----1-----1*----1-----1*----0----------------|
B|---0-----0-----0-----0-----0-----0---3---3-1----|
G|-----0-----0-----0-----0-----0-----0---0-------0|
D|------------------------------------------------|
A|------------------------------------------------|
E|-3-----3-----3-----3-----3-----3-----3-----3----|

[Verse 4] 
   I feel dizzy...   and I'm too blind... 
e|------------------------------------------------|
B|-1---1-1---1-1---1-1---1-1---1-1---1-1---1-1---1|
G|---0-----0-----0-----0-----3-----3-----3-----3--|
D|------------------------------------------------|
A|-3-----3-----3-----3-----3-----3-----3-----3----|
E|------------------------------------------------|

   on outside...     window...    
e|------------------------------------------------|
B|-1---1-1---1-1---1-1---1-1---1-1---1-1---1-1---1|
G|---2-----2-----2-----2-----0-----0-----0-----0--|
D|------------------------------------------------|
A|-3-----3-----3-----3-----3-----3-----3-----3----|
E|------------------------------------------------|

I'm turning on...  watch the news...
e|------------------------------------------------|
B|-1---1-1---1-1---1-1---1-1---1-1---1-1---1-1---1|
G|---0-----0-----0-----0-----3-----3-----3-----3--|
D|------------------------------------------------|
A|-3-----3-----3-----3-----3-----3-----3-----3----|
E|------------------------------------------------|

 I fall back...      again...   I'm dreaming... 
e|------------------------------------------------|
B|-1---1-1---1-1---1-1---1-1---1-1---1-1---1------|
G|---2-----2-----2-----2-----0-----0-----0--------|
D|------------------------------------------------|
A|-3-----3-----3-----3-----3-----3-----3----------|
E|-------------------------------------------0-1-2|

e|---------------------------|
B|-1---1-1---1-1---1-1---1-1*|
G|---2-----2-----2-----2-----|
D|---------------------------|
A|-3-----3-----3-----3-----3*|
E|---------------------------|


************************************

| *  Natural harmonic

************************************
Suggest correction
Creating personal tab
Creating personal tab
You can edit any tab online and save it as your Personal.

You can edit, replace or remove any tab part or add personal notes – all changes will be seen only by you.

Personal tabs can be accessed anytime from any device, even offline.
Learn more »
comments
print report bad tab
6 comments total. Showing first comments.
+1 reply
ALAX 177 Sep 25, 2006 12:07 PM

Very nice job Afred. I've been trying to figure Ochrasy out for a week, but you mdae it simple. Thanks dude.
Rob211

+1 reply
davesoadffl 56 Oct 04, 2006 05:14 AM

Wonderful tab!

+1 reply
xtone_ 27 Oct 31, 2006 02:50 AM

great tab

guest
You may want to rate the tab now too:
select rating
Wanna post a correction for this tab? Suggest correction