Oops, an error
Loading. Please wait.

Sheepdog bass

version 1
version 1

Whole song

Interactive

7,593 views 6 this week
no commentswrite comment
1 2 3 4 5
x 5
add to favorites
×
Save as Personal and add changes to this tab that will be seen only by you. Learn more ›
×
You can save this tab as Personal to edit and correct it or add notes. All changes will be seen only by you. Learn more »
launch autoscroll
font size
0
reset
guitar tuner
edit
Autoscroll
slow
fast
+/-
esc
set tempo
stop
Author
Artist: Mando Diao

Title: Sheepdog

Album: Bring 'em in


tabbed by: David Ebner - email: david583@gmx.at


-----------------

5h7 = hammer on

//--3--\\ = triplet

----------------


intro

  .   .    .   .    .   .    .   .
G|-----------------|-----------------|
D|9---9--7h9-7-----|-----------------|
A|-------------9-8-|7---7--5h7-5---5-|	x6
E|-----------------|-------------7---|


verse

  .   .   .   .    .   .   .   .    .   .   .   .    .   .   .   .
G|----------------|----------------|----------------|----------------|
D|9-9-9-9-9-9-9-9-|9-9-9-9-9-9-9-9-|----------------|----------------|
A|----------------|----------------|5---5---5-----5-|------5-------5-|
E|----------------|----------------|----------5-7---|--5-7-----5-7---|

  .   .   .   .    .   .   .   .    .   .   .   .    .   .   .   .
G|----------------|----------------|----------------|----------------|
D|----------------|----------------|----------------|8--8--8---------|
A|7---5-7-----5-7-|7---5-7-----5-7-|9--9--9---------|----------------|
E|--7-------7-----|--7-------7-----|----------------|----------------|

  .   .   .   .    .   .   .   .    .   .   .   .    .   .   .   .
G|----------------|----------------|----------------|----------------|
D|9-9-9-9-9-9-9-9-|9-9-9-9-9-9-9-9-|----------------|----------------|
A|----------------|----------------|5---5---5-----5-|------5-------5-|
E|----------------|----------------|----------5-7---|--5-7-----5-7---|

  .   .   .   .    .   .   .   .    .   .   .   .    .   .   .   .
G|----------------|----------------|----------------|----------------|
D|----------------|----------------|----------------|8-8-8-8-8-8-8-8-|
A|7---5-7-----5-7-|7---5-7-----5-7-|9--9--9---------|----------------|
E|--7-------7-----|--7-------7-----|----------------|----------------|


chorus

  .       .       .       .        .       .       .       . 
G|--------------------------------|--------------------------------|
D|--------------------------------|--------11-h14--11--------------|
A|10--------------10-h12------12--|----14--------------14--12------|
E|--------10-h12------------------|----------------------------14--|

  .       .       .       .        .       .       .       . 
G|--------------------------------|--------------------------------|
D|12-----h14------11-----h12--9---|----9---9---9---9---9---9---9---|
A|--------------------------------|--------------------------------|
E|--------------------------------|--------------------------------|

  .       .       .       .        .       .       .       . 
G|--------------------------------|--------------------------------|
D|--------------------------------|----------------9---9---9---9---|
A|10--------------10-h12------9---|----9---9---9-------------------|
E|--------10-h12------------------|--------------------------------|

  .       .       .       .        .       .       .       . 
G|--------------------------------|--------------------------------|
D|9-------9-----7h9---7-----------|--------------------------------|
A|------------------------9---8---|--------------------------------|
E|--------------------------------|7-------7-----5h7---5---2---0---|

  .       .       .       .        .       .       .       . 
G|--------------------------------|--------------------------------|
D|--------------------------------|--------11-h14--11--------------|
A|10--------------10-h12------12--|----14--------------14--12------|
E|--------10-h12------------------|----------------------------14--|

  .       .       .       .        .       .       .       . 
G|--------------------------------|--------------------------------|
D|12-----h14------11-----h12--9---|----9---9---9---9---9---9---9---|
A|--------------------------------|--------------------------------|
E|--------------------------------|--------------------------------|

  .       .       .       .        .       .       .       . 
G|--------------------------------|--------------------------------|
D|--------------------------------|--------------------------------|
A|10--------------10-h12------9---|--------------------------------|
E|--------10-h12------------------|--------------------------------|


repeat intro

  .   .    .   .    .   .    .   .
G|-----------------|-----------------|
D|9---9--7h9-7-----|-----------------|
A|-------------9-8-|7---7--5h7-5---5-|	x2
E|-----------------|-------------7---|


verse

  .   .   .   .    .   .   .   .    .   .   .   .    .   .   .   .
G|----------------|----------------|----------------|----------------|
D|9-9-9-9-9-9-9-9-|9-9-9-9-9-9-9-9-|----------------|----------------|
A|----------------|----------------|5---5---5-----5-|------5-------5-|
E|----------------|----------------|----------5-7---|--5-7-----5-7---|

  .   .   .   .    .   .   .   .    .   .   .   .    .   .   .   .
G|----------------|----------------|----------------|----------------|
D|----------------|----------------|----------------|8--8--8---------|
A|7---5-7-----5-7-|7---5-7-----5-7-|9--9--9---------|----------------|
E|--7-------7-----|--7-------7-----|----------------|----------------|

  .   .   .   .    .   .   .   .    .   .   .   .    .   .   .   .
G|----------------|----------------|----------------|----------------|
D|9-9-9-9-9-9-9-9-|9-9-9-9-9-9-9-9-|----------------|----------------|
A|----------------|----------------|5---5---5-----5-|------5-------5-|
E|----------------|----------------|----------5-7---|--5-7-----5-7---|

  .   .   .   .    .   .   .   .    .   .   .   .    .   .   .   .
G|----------------|----------------|----------------|----------------|
D|----------------|----------------|----------------|8-8-8-8-8-8-8-8-|
A|7---5-7-----5-7-|7---5-7-----5-7-|9--9--9---------|----------------|
E|--7-------7-----|--7-------7-----|----------------|----------------|


chorus

  .       .       .       .        .       .       .       . 
G|--------------------------------|--------------------------------|
D|--------------------------------|--------11-h14--11--------------|
A|10--------------10-h12------12--|----14--------------14--12------|
E|--------10-h12------------------|----------------------------14--|

  .       .       .       .        .       .       .       . 
G|--------------------------------|--------------------------------|
D|12-----h14------11-----h12--9---|----9---9---9---9---9---9---9---|
A|--------------------------------|--------------------------------|
E|--------------------------------|--------------------------------|

  .       .       .       .        .       .       .       . 
G|--------------------------------|--------------------------------|
D|--------------------------------|----------------9---9---9---9---|
A|10--------------10-h12------9---|----9---9---9-------------------|
E|--------10-h12------------------|--------------------------------|

  .       .       .       .        .       .       .       . 
G|--------------------------------|--------------------------------|
D|9-------9-----7h9---7-----------|--------------------------------|
A|------------------------9---8---|--------------------------------|
E|--------------------------------|7-------7-----5h7---5---2---0---|

  .       .       .       .        .       .       .       . 
G|--------------------------------|--------------------------------|
D|--------------------------------|--------11-h14--11--------------|
A|10--------------10-h12------12--|----14--------------14--12------|
E|--------10-h12------------------|----------------------------14--|

  .       .       .       .        .       .       .       . 
G|--------------------------------|--------------------------------|
D|12-----h14------11-----h12--9---|----9---9---9---9---9---9---9---|
A|--------------------------------|--------------------------------|
E|--------------------------------|--------------------------------|

  .       .       .       .        .       .       .       . 
G|--------------------------------|--------------------------------|
D|--------------------------------|--------------------------------|
A|10--------------10-h12------9---|--------------------------------|
E|--------10-h12------------------|--------------------------------|


repeat intro / guitar solo

  .   .    .   .    .   .    .   .
G|-----------------|-----------------|
D|9---9--7h9-7-----|-----------------|
A|-------------9-8-|7---7--5h7-5---5-|	x6
E|-----------------|-------------7---|

  .       .       .       .        .       .       .       . 
G|11------11----9h11--9-----------|--------------------------------|
D|------------------------11--7---|--------------------------------|
A|--------------------------------|9-------9-----7h9---7-------7---|
E|--------------------------------|------------------------9-------|

  .       .       .       .        .       .       .       . 
G|11------11----9h11--9-----------|----------------//----3----\\---|
D|------------------------11--7---|//----3----\\---8----8----8-----|
A|--------------------------------|9----9----9---------------------|
E|--------------------------------|--------------------------------|

(slow tempo down)
  .   .   .   .    .   .   .   .
G|----------------|----------------|
D|----------------|----------------|
A|----------------|----------------|
E|3---------------|5---------------|

  .   .   .   .    .   .   .   .
G|----------------|----------------|
D|----------------|----------------|
A|5-------4-------|2-------2-------|
E|----------------|----------------|

  .   .   .   .    .   .   .   .
G|----------------|//-----3-----\\-|
D|5---------------|4---------------|
A|----------------|------4---------|
E|----------------|------------2---|


outro (same as intro - normal tempo)

  .   .    .   .    .   .    .   .
G|-----------------|-----------------|
D|9---9--7h9-7-----|-----------------|
A|-------------9-8-|7---7--5h7-5---5-|	repeat many times	
E|-----------------|-------------7---|			...and fade out



that's it!

please rate!

            
            
Suggest correction
Creating personal tab
Creating personal tab
You can edit any tab online and save it as your Personal.

You can edit, replace or remove any tab part or add personal notes – all changes will be seen only by you.

Personal tabs can be accessed anytime from any device, even offline.
Learn more »
comments
print report bad tab
guest
You may want to rate the tab now too:
select rating
Wanna post a correction for this tab? Suggest correction