Oops, an error
Loading. Please wait.

Sheepdog Tab

version 2
version 2

Whole song

Interactive

42,186 views 48 this week
9 commentsread comments
1 2 3 4 5
x 14
add to favorites
launch autoscroll
font size
0
reset
how to read this tab
guitar tuner
×
Best way to learn
"Sheepdog"
Autoscroll
slow
fast
+/-
esc
set tempo
stop
Author
-------------------------------------------------------------------------------
			     Sheepdog - Mando Diao
-------------------------------------------------------------------------------
Tabbed by:Señor
Email:sverigerocks@hotmail.com

Tuning:standard

Guitar 1
intro riff:
e|---------------------------------------------------------------------------|
B|---------------------------------------------------------------------------|
G|---------------------------------------------------------------------------|
D|-9-9-7-9-7-----------------------------------------------------------------|
A|-----------9-8-7-7-5-7-5---5-----------------------------------------------|
E|-------------------------7-------------------------------------------------|

Guitar 2
intro: play chords B5 and E5

verse:
Bm
I aim at the first one who'll dare to stand still
                D
Oh Lord, you're tension is making me ill
              Em
You've got no friends in your home, you'll got no family stone
              F#               F#
You can't go: Yeah Yeah Yeah, Yeah Yeah Yeah
(same chords again)
Everyone, in every town, on every boat, on every trip, the multi-talanted strip, 
Will gather 'round you with coke and pain
The trees, ain't no doubt about 
The seeds, I had no thought about 
No, Yeah Yeah Yeah

Chorus:
                 G                 A     
Don't know why I can't locate this feeling,
             D      D/C#    Bm
that I would rather be with you
            G                  F#
It makes no sense, your crying out loud,
           Bm*
that I may love you

*riff (Guitar 1)
e|---------------------------------------------------------------------------|
B|---------------------------------------------------------------------------|
G|---------------------------------------------------------------------------|
D|-9-9-7-9-7-----------------------------------------------------------------|
A|-----------9-8-------------------------------------------------------------|
E|---------------7-7-5-7-5-2-0-----------------------------------------------|

		G		A
This stress is wasting my emotions
		D	D/C#   Bm
that I would rather be with you
               G              F# (let ring)
Don't let them closer to this secret...

		*intro riff
that I may love you

Verse:
Take 'em outa west, take 'em outa height, take 'em on a sweet ride
Those little angels are numbered nine
The colored TV once shined on desolation 1-5
They've got it! Yeah Yeah Yeah
Bust 'em in the light, bust 'em in the light, BUST 'EM IN THE DAYLIGHT
They ain't worthy being named as thieves
One of those shorties said hi up to the abbot who died 
The rebound, Yeah Yeah Yeah

Chorus:
Don't know why I...

Guitar 1
Solo:
e|---------------------------------------------------------------------------|
B|---------------------------------------------------------------------------|
G|------------------------9999999910101010101010101111111111111111-----------|
D|999999991212121212121212---------------------------------------------------|
A|---------------------------------------------------------------------------|
E|---------------------------------------------------------------------------|

e|------------------------------------------------|---10-9-------------------|
B|101010101010101012121212121212121010101010101010|12------12-10---repeat----|
G|------------------------------------------------|--------------------------|
D|------------------------------------------------|--------------------------|
A|------------------------------------------------|--------------------------|
E|------------------------------------------------|--------------------------|

e|----------------------|-----------------------------------------------|
B|-12-10----------------|-----------------------------------------------|
G|-------11-10-9--------|11-11-9-11-9-----------------------------------|
D|---------------12-9---|-------------11-10-----------------------------|
A|--------------------12|-------------------9-9-7-9-7---7-9-9-7-9-7-----|
E|----------------------|-----------------------------9-------------9-8-|

e|------------|
B|------------|
G|------------|
D|------------|
A|------------|
E|-2-2-2-5-5-5|

Guitar 2 during the solo plays intro riff

Now hear the bluebird whistle hymns like "I would rather heal your wounds" 
now hear the dark gun punching out, that I may love you

Outro riff (same as intro riff, repeat alot)

That is it. If you're interested in other Mando Diao tabs please let me know.


| /  slide up
| \  slide down
| h  hammer-on
| p  pull-off
| ~  vibrato
| +  harmonic
| x  Mute note
===============================================================================
Suggest correction
comments
print report bad tab
9 comments total. Showing first comments.
0 reply
Etwas 10 Jul 15, 2004 08:00 PM

[ ] the solo seems good to me but i used to play it on a single strig ;D

0 reply
Señor 110 Jul 30, 2004 08:00 PM

hey. what chords do you mean? and yes the tuning is standard

+1 reply
Gnu 10 Aug 13, 2006 04:38 PM

maybe i'm just a stupid beginner but my own ears and fingers like it better with "hammer"

intro riff:
e|---------------------------------------------------------------------------|
B|---------------------------------------------------------------------------|
G|---------------------------------------------------------------------------|
D|-9-9-7h9-7-----------------------------------------------------------------|
A|-----------9-8-7-7-5h7-5---5-----------------------------------------------|
E|-------------------------7-------------------------------------------------|

guest
You may want to rate the tab now too:
select rating
Wanna post a correction for this tab? Suggest correction