Oops, an error
Loading. Please wait.

Strovtag I Hembygden tab

version 1
version 1

Whole song

22,575 views 39 this week
2 commentsread comments
1 2 3 4 5
x 7
add to favorites
×
Save as Personal and add changes to this tab that will be seen only by you. Learn more ›
×
You can save this tab as Personal to edit and correct it or add notes. All changes will be seen only by you. Learn more »
launch autoscroll
font size
0
reset
how to read this tab
guitar tuner
edit
Autoscroll
slow
fast
+/-
esc
set tempo
stop
-----------------------------------------------------------------------------
                             Strövtåg i Hembygden - Mando Diao
-----------------------------------------------------------------------------
Tabbed by: Ludwig Kumlin Larsson
E-mail: Ludwigkumlinlarsson@gmail.com

Tuning: Standard
Capo: 4th fret


 [Intro/Outro]
         C                         F
      e|------------0------------|------------0------------|
      B|----1---3-------3--1---1-|----1---3-------3--1---1-|
      G|-------------------------|-------------------------|
      D|-------------------------|-3-------------------3---|
      A|-3-------------------3---|-------------------------|
      E|-------------------------|-------------------------|

         Em7        Dm              C
      e|--------0---1p0-----------|------------0------------|
      B|----3-------------3--3--0-|h1--1---3-------3--1---1-|
      G|----------------2---------|-------------------------|
      D|------------0-------------|-------------------------|
      A|--------------------------|-3-------------------3---| 
      E|-0------------------------|-------------------------|

         C                         F
      e|------------0------------|------------0------------|
      B|----1---3-------3--1---1-|----1---3-------3--1---1-|
      G|-------------------------|-------------------------|
      D|-------------------------|-3-------------------3---|
      A|-3-------------------3---|-------------------------|
      E|-------------------------|-------------------------|

         Em7        Dm              C
      e|--------0---1p0-----------|-----------------------|
      B|----3-------------3--3--0-|h1--1---3-1------------|
      G|----------------2---------|-----------------------|
      D|------------0-------------|-----------------------|
      A|--------------------------|-3---------------------| 
      E|-0------------------------|-----------------------|

(for outro, last bar play x3xx1x and hold)


[Verse]
            C                    F
     Det är skimmer i molnen och glitter i sjön,
            Em        Dm           C
     det är ljus över stränder och näs,
         C                             F
     och omkring mig står den härliga skogen så grön
           Em       Dm        C
     bakom ängarnas gungande gräs.

             Am                     Em
     Och med sommar och skönhet och skogsvindsackord
              Dm                     G
     står min hembygd och hälsar mig glad,
             Am                     Em
     var mig hälsad, men var är min faders gård,
            Dm                   G
     det är tomt bakom lönnarnas rad...


The chords follow the same pattern for the rest of the song...



************************************

| p  Pull-off

************************************

            
            
Suggest correction
Creating personal tab
Creating personal tab
You can edit any tab online and save it as your Personal.

You can edit, replace or remove any tab part or add personal notes – all changes will be seen only by you.

Personal tabs can be accessed anytime from any device, even offline.
Learn more »
comments
print report bad tab
2 comments total.
+1 reply
Hampurilias 39 Feb 28, 2015 12:51 AM

Helt perfekt!

0 reply
olivermourati 19 Apr 23, 2017 02:29 PM

Tycker detta låter mer likt originalet C F
e|-------0-------------|--------0------------|
B|---1-3---3-1-1-------|----1-3---3-1-1------|
G|---------------------|---------------------|
D|---------------------|--3----------3-------|
A|-3----------3--------|---------------------|
E|---------------------|---------------------|

EM DM C
e|--------1p0----------|---------0-----------|
B|---0-3------3-0-0----|----1-3----3--1-1----|
G|---------------------|---------------------|
D|---------------------|---------------------|
A|-2-------------2-----|--3------------3-----|
E|---------------------|---------------------|

guest
You may want to rate the tab now too:
select rating
Wanna post a correction for this tab? Suggest correction