Oops, an error
Loading. Please wait.

Clover Tune Chords

445 views 9 this week
no commentswrite comment
1 2 3 4 5
x 4
add to favorites
launch autoscroll
font size
0
reset
transpose
0
reset
simplify chords
display chords
guitar tuner
×
Best way to learn
"Clover Tune"
Autoscroll
slow
fast
+/-
esc
set tempo
stop
Author
Difficulty
Capo
  follow
intermediate
4th fret
About this tab version
Very nice song, couldnt find Tabs anywhere, so there we go, enjoy... Was this info helpful? Yes No
Capo 4

[Chords]
Fmaj7/C  E7     E7sus4
||||X|  |||X||  ||||||
|||X||  |XX|||  |X|X||  
|XX|||  ||||X|  ||||X|  
||||||  ||||||  ||||||
||||||  ||||||  ||||||

[Intro]
e|-------------------------------------------------------------------|
B|-------------------------------------------------------------------|
G|---------0--2/4----4/2--0------------------------------------------|
D|--0-H2--------------------0-H2-----3----3--2--0-----0-H2---0-------|
A|-------------------------------------------------3-----------3--2--|
E|-------------------------------------------------------------------|

e|-----------------------------0-------------------------------------|
B|--------------------------------1----------------------------------|
G|----------------------------------2------------0--2/4--4/5-5--4--5-|
D|--------------------------2---------2----0-H2----------------------|
A|--2--2-H3---3--2--0----0-------------------------------------------|
E|-------------------------------------------------------------------|

e|-------------------------------------------------------------------|
B|-------------------------------------------------------------------|
G|--4--5--4--2--0----------------------------------------------------|
D|------------------0-H2---2--3--0-----------------------------------|
A|-----------------------------------0-H2--2-H3--3--2--0-------------|
E|-------------------------------------------------------------------|

[Verse]
Am                           C/G
You used to like untruly, so kindly
           G                        Am
 And it left; you're lying here in ruin
Am                    C/G
You cut the hand of a good friend
               G          Am
 And you smile in all you do

[Chorus]
          Fmaj7/C               C/G
Got a hole burning in your brain
        G                                   F
Just north of the last line on a southbound train
             Am                      E7               G
Wonder why you look all over just to find a four-leaf clover
                     F              E7sus4  Am
And as you pick it, it just withers away

[Verse]
Am                                       C/G
But now you live so true, mysterious and blue
     G                     Am
Waking up each morning all alone
             Am                   C/G
You sip black coffee but you hate the taste
       G                                   Am
And your crown of thorns weighs heavies at home

[Chorus]
          Fmaj7/C          C/G
Got a hole burning in your heart
        G                       F
Where once before  you love is overflowing
             Am                      E7                     G
And you hate the sky for crying and you love the same sky when it's smiling
                     F                           E7sus4    Am
Peeking through the blinds is your only means of knowing

[Outro]
          Fmaj7/C         C/G
Are you not your mother's son?
        G                              F
Once on the run for throwing stones at old windows
Am                                  C/G
But you live so freely, and you walk so easy
           G                              Am
Leaning with whichever way the wind would blow
Suggest correction
comments
print report bad tab
guest
You may want to rate the tab now too:
select rating
Wanna post a correction for this tab? Suggest correction