Oops, an error
Loading. Please wait.

La Mosca Y Yo Bass

1 view 1 this week
no commentswrite comment
1 2 3 4 5
3 more votes to show rating
add to favorites
×
Save as Personal and add changes to this tab that will be seen only by you. Learn more ›
×
You can save this tab as Personal to edit and correct it or add notes. All changes will be seen only by you. Learn more »
save as personal
new!
launch autoscroll
font size
0
reset
guitar tuner
Autoscroll
slow
fast
+/-
esc
set tempo
stop
* = armonico


intro:

   *  *  *  *   *  *  *   *  *  *  *   *  *  *                  
G|-------14--------14-----------14--------14--------|
D|-11-11----12--12----12--11-11----12--12----12-----|
A|--------------------------------------------------|
E|--------------------------------------------------|

G|------------2---------------7-6-4-----------------|
D|--------2-4---4-2-----------------7-4-------------|
A|-0-2--4-----------4--0-2--------------7-4---------|
E|--------------------------------------------------|
    tu tu ru ru ru....

G|------------2----------------7-6-4----------------|
D|--------2-4---4-2------------------7-4------------|
A|-0-2--4-----------4--0-2----------------7-4---0-2-|
E|--------------------------------------------------|
                                                   tu ru ru ru.
estrofa 1:
ESTROFA                                
A       Bm      A         Bm    A        Bm         D#            D                                 
DEJAME VERTE DORMIDA OTRA VEZ, SUEÑA CON SOLES Y ESTRELLAS QUE TE HAGAN REIR
A        Bm       A          Bm   A          Bm         D#            D      
DEJA QUE SUENE TU LLANTO DESPUES, LLORA Y CONSUELA QUE SIEMPRE NOS VAMOS A TENER

PRECORO:
A           Bm          C#m        D       A         Bm         C#m      D    
Y COMO UN GRILLITO, SE METIO MUY ADENTRO. JUGABA,SU CANTO LUEGO DESBANECIO

CORO:


G|--------------------------------------------------------------|
D|----------2--------------------------2----------------4/2-----|
A|--4-2-4----4-5-4----------4-2-4----4-5-4----5-----------------|
E|---------------------5-2--------------------------------------|
      Y NO ME DIJO NADA       SOLO SE ESCAPO,    DEJO MI CASA,          GUARIDA DE AMOR  HAA

G|-----------------------------------------------------------1--|
D|----------2--------------------------2--------------2-4-------|
A|--4-2-4----4-5-4----------4-2-4----4-5-4--5-------------------|
E|---------------------5-2--------------------------------------|
  DEJO MI CASA,GUARIDA DE AMOR                   HAA

   
G|------------2---------------7-6-4------------------------------|
D|--------2-4---4-2-----------------7-4--------------------------|
A|-0-2--4-----------4--0-2--------------7-4----------------------|
E|---------------------------------------------------------------|

G|------------2----------------7-6-4-----------------------------|
D|--------2-4---4-2------------------7-4-------------------------|
A|-0-2--4-----------4--0-2----------------7-4---0-2--------------|
E|---------------------------------------------------------------|   

ESTROFA
A       Bm            A         Bm      A      Bm      D#         D        G 
DUERME TRANQUILA QUE SUEÑE OTRA VEZ  TU RISA SERENA Y YA NOS VOLVEREMOS A VER 
      F#    F         C                A#         A          
EN EL MAR MIRANDO LA MOSCA AL VIDRIO, QUE TE HIZO SOLO SONREIR

se repite el coro de nuevo y el intro al final...

G|------------2---------------7-6-4-------------------------------|
D|--------2-4---4-2-----------------7-4---------------------------|
A|-0-2--4-----------4--0-2--------------7-4-----------------------|
E|----------------------------------------------------------------|
    tu tu ru ru ru....

G|------------2----------------7-6-4------------------------------|
D|--------2-4---4-2------------------7-4--------------------------|
A|-0-2--4-----------4--0-2----------------7-4---0-2---------------|
E|----------------------------------------------------------------|
                                                   tu ru ru ru.

 *  *  *  *   *  *  *   *  *  *  *   *  *  *                  
G|-------14--------14-----------14--------14----------------------|
D|-11-11----12--12----12--11-11----12--12----12-------------------|
A|----------------------------------------------------------------|
E|----------------------------------------------------------------|
Suggest correction
Give kudos to tab author, rate the tab!
1 2 3 4 5
comments
print report bad tab
guest
Wanna post a correction for this tab? Suggest correction