Oops, an error
Loading. Please wait.

La Mosca Y Yo Tab

19 views 1 this week
no commentswrite comment
1 2 3 4 5
3 more votes to show rating
add to favorites
launch autoscroll
font size
0
reset
how to read this tab
guitar tuner
Autoscroll
slow
fast
+/-
esc
set tempo
stop
Help us to improve Ultimate-Guitar.com Take our survey!
×
intro:
e|-----------------------------------------------------------------------------|
B|-------------------------3-2-----------------------------------3-2-----------|
G|------------2----------------4-2------------------2----------------4-2-------|
D|---2-4--2-4---4-2---2-4----------4-2-----2-4--2-4---4-2---2-4----------4-2---|
A|---0-2-4----------4-0-2--------------4---0-2-4----------4-0-2--------------4-|
E|-----------------------------------------------------------------------------|
 
e|-----------------------------------------------------------------------------|
B|-------------------------3-2-----------------------------------3-2-----------|
G|------------2----------------4-2------------------2----------------4-2-------|
D|---2-4--2-4---4-2---2-4----------4-2-----2-4--2-4---4-2---2-4----------4-2---|
A|---0-2-4----------4-0-2--------------4---0-2-4----------4-0-2--------------4-|
E|-----------------------------------------------------------------------------|

e|-----------------------------------------------------------------------------|
B|-------------------------3-2-----------------------------------3-2-----------|
G|------------2----------------4-2------------------2----------------4-2-------|
D|---2-4--2-4---4-2---2-4----------4-2-----2-4--2-4---4-2---2-4----------4-2---|
A|---0-2-4----------4-0-2--------------4---0-2-4----------4-0-2--------------4-|
E|-----------------------------------------------------------------------------|
     turururu.......    
e|---------------------------------------------|
B|-------------------------3-2-----------------|
G|------------2----------------4-2-------------|
D|---2-4--2-4---4-2---2-4----------4-2-----2-4-|
A|---0-2-4----------4-0-2--------------4---0-2-|
E|---------------------------------------------|
                                   turururuuu...
 
ESTROFA                                
A       Bm      A         Bm    A        Bm         D#            D                                 
DEJAME VERTE DORMIDA OTRA VEZ, SUEÑA CON SOLES Y ESTRELLAS QUE TE HAGAN REIR
A        Bm       A          Bm   A          Bm         D#            D      
DEJA QUE SUENE TU LLANTO DESPUES, LLORA Y CONSUELA QUE SIEMPRE NOS VAMOS A TENER

PRECORO:
A           Bm          C#m        D       A         Bm         C#m      D    
Y COMO UN GRILLITO, SE METIO MUY ADENTRO. JUGABA,SU CANTO LUEGO DESBANECIO

CORO:

e|-----------------------------------------------------------------------------------|
B|-----------------------------------------------------------------------------------|
G|-----------------------------------------------------------------------------------|
D|-------2----------------------2------------------2----------------------2----------|
A|-4-2-4---4-4/5-4--------4-2-4---4-4/5------4-2-4---4-4/5-4--------4-2-4---4-4/5----|
E|-----------------5-2----------------------------------------5-2--------------------|

  Y NO ME DIJO NADA       SOLO SE ESCAPO,    DEJO MI CASA,          GUARIDA DE AMOR  HAA

ESTROFA
A       Bm            A         Bm      A      Bm      D#         D        G 
DUERME TRANQUILA QUE SUEÑE OTRA VEZ  TU RISA SERENA Y YA NOS VOLVEREMOS A VER 
      F#    F         C                A#         A          
EN EL MAR MIRANDO LA MOSCA AL VIDRIO, QUE TE HIZO SOLO SONREIR


SE REPITE EL PRECORO,Y DESPUES EL CORO DOS VECES Y TERMINA CON EL MISMO INTRO AL FINAL...

e|-----------------------------------------------------------------------------|
B|-------------------------3-2-----------------------------------3-2-----------|
G|------------2----------------4-2------------------2----------------4-2-------|
D|---2-4--2-4---4-2---2-4----------4-2-----2-4--2-4---4-2---2-4----------4-2---|
A|---0-2-4----------4-0-2--------------4---0-2-4----------4-0-2--------------4-|
E|-----------------------------------------------------------------------------|
     turururu.......    
e|---------------------------------------------|
B|-------------------------3-2-----------------|
G|------------2----------------4-2-------------|
D|---2-4--2-4---4-2---2-4----------4-2-----2-4-|
A|---0-2-4----------4-0-2--------------4---0-2-|
E|---------------------------------------------|
                           TURURURU, TURURURUUU...
Suggest correction
Give kudos to tab author, rate the tab!
1 2 3 4 5
comments
print report bad tab
guest
You may want to rate the tab now too:
select rating
Wanna post a correction for this tab? Suggest correction