Oops, an error
Loading. Please wait.

Muerte Al Rock And Roll Tab

4 views 1 this week
no commentswrite comment
1 2 3 4 5
3 more votes to show rating
add to favorites
launch autoscroll
font size
0
reset
how to read this tab
guitar tuner
Autoscroll
slow
fast
+/-
esc
set tempo
stop
Help us to improve Ultimate-Guitar.com Take our survey!
×
/---------------------------------------------------/  bis 
 INTRO   G           F               C                  Bb
E------------------------------------------------------------
B------------------------------------------------------------
G------------------------------------5-------------------3---
D-3-4-5--5-----------3---------------5-------------------3---
A-3-4-5--5-----------3---------------3-------------------1---
E-1-2-3--3-----------1---------------------------------------


G           F
Odio al régimen
C                  Bb
Verano de la imposición
G               F
Cínico ni al tacto
C                  Bb
Al tacto se siente mejor


PRECORO
  

   E    C
Un cirujano me afilo la nariz     D---5--5---3-0--5--- X 2
   E    C
Un especialista me arreglo los pies   D---5--5---3-0--5--- X 2
 E      C
Mírame bien que es lo que soy 
 E      C
Mírame bien que sexy estoy 
  E       C
Si te mueves bien saldrá en televisión


E-------------------------------------
B-------------------------------------
G--------------------------3-4-5------  X 2 
D--------------3-----------3-4-5------
A---1-2-3--------5-4-3-1---1-2-3------
E-3-------1-2------------3--------1-2-   

   
F F#  G                  F
     Muerte al rock and roll
C                 Bb
Mientras das serás mejor
G             F
Comercial de amor
C                    Bb
Tu cuerpo es el mejor postor 


E    C
Un cirujano me afiló la nariz    D---5--5---3-0--5--- X 2
E    C
Un especialista me arreglo los pies   D---5--5---3-0--5--- X 2
E       C
Mírame bien que es lo que soy
E       C
Mírame bien que sexy estoy 
E       C
Si te mueves bien saldrás en televisión


E-------------------------------------
B-------------------------------------
G--------------------------3-4-5------  X 2 
D--------------3-----------3-4-5------
A---1-2-3--------5-4-3-1---1-2-3------
E-3-------1-2------------3--------1-2- 


SOLO EN ESCALA DE MI Y ACOMPAÑANMIENTO SEGUNDA GUITARRA:   G F C Bb


 E    C
Un cirujano me afiló la nariz  D---5--5---3-0--5--- X 2

 E    C
Un especialista me arreglo los pies  D---5--5---3-0--5--- X 2
E    C
Mírame bien que es lo que soy 
E    C
Mírame bien que sexy estoy 
E    C
Si te mueves bien saldrás en televisión


E-------------------------------------
B-------------------------------------
G--------------------------3-4-5------   hasta el final
D--------------3-----------3-4-5------
A---1-2-3--------5-4-3-1---1-2-3------
E-3-------1-2------------3--------1-2- 
Apela el juicio          repite varias veces


cualquier opinion o sugerencia a rock_for_choice_1@
Suggest correction
Give kudos to tab author, rate the tab!
1 2 3 4 5
comments
print report bad tab
guest
You may want to rate the tab now too:
select rating
Wanna post a correction for this tab? Suggest correction