Oops, an error
Loading. Please wait.

Verde Claro Tab

47 views 1 this week
no commentswrite comment
1 2 3 4 5
3 more votes to show rating
add to favorites
launch autoscroll
font size
0
reset
how to read this tab
guitar tuner
Autoscroll
slow
fast
+/-
esc
set tempo
stop
Help us to improve Ultimate-Guitar.com Take our survey!
×
intro:

e|----------------------------------------------------------------------------------------------|
B|----------------------------------------------------------------------------------------------|
G|----------------------------------------------------------------------------------------------|
D|-------2------------2-------------------------------------------------------------------------|
A|-4-2-4-0-4-2--4-2-4-0-4-2--7-6-7--7-6--7-6-7--7-6-2-------------------------------------------|
E|-2-0-2---2-0--2-0-2---2-0--5-4-5--5-4--5-4-5--5-4-0-------------------------------------------|
 
e|----------------------------------------------------------------------------------------------|
B|----------------------------------------------------------------------------------------------|
G|----------------------------------------------------------------------------------------------|
D|-------2------------2-------------------------------------------------------------------------|
A|-4-2-4-0-4-2--4-2-4-0-4-2--7-6-7--7-6--7-6-7--7-6-2-------------------------------------------|
E|-2-0-2---2-0--2-0-2---2-0--5-4-5--5-4--5-4-5--5-4-0-------------------------------------------|

e|-------------|
B|-------------|
G|-------------|
D|-------2-----|
A|-4-2-4-0-4-2-|
E|-2-0-2---2-0-|   de ahi comienza el canto

ojos verde claro......., en la primera estrofa se sigue con el mismo modelo del 
intro, hasta que llega a...

coro:
e|----------------------------------------------------------------------------------------------|
B|----------------------------------------------------------------------------------------------|
G|----------------------------------------------------------------------------------------------|
D|----------7-(7)----------4-(7)----------------------------------------------------------------|
A|----------5-(5)----------2-(5)----------------------------------------------------------------|
E|----------------------------------------------------------------------------------------------|
  es que la vida entera no tiene sentido sin ella

e|----------------------------------------------------------------------------------------------|
B|----------------------------------------------------------------------------------------------|
G|----------------------------------------------------------------------------------------------|
D|--------------2--------------------7-(7)----------4-(7)---------------------------------------|
A|-4-2-4-4--2-4-0-4-2-4-4------------5-(5)----------2-(5)---------------------------------------|
E|-2-0-2-2--0-2---2-0-2-2-----------------------------------------------------------------------|
                           es que la vida entera no tiene sentido sin ella

e|----------------------------------------------------------------------------------------------|
B|---------------------------------4------------------------------------------4-----------------|
G|------3-3--------2-2---------4-4-----4-4---------3-3--------2-2---------4-4-----4-4-----------|
D|----4-----4----4-----4-----4-------4-----------4-----4----4-----4-----4-------4---------------|
A|--4----------4-----------2-------------------4----------4-----------2-------------------------|
E|-2----------2----------2--------------------2----------2----------2---------------------------|

e|----------------------------------------------------------------------------------------------|
B|----------------------------------------------------------------------------------------------|
G|----------------------------------------------------------------------------------------------|
D|-------2------------2-------------------------------------------------------------------------|
A|-4-2-4-0-4-2--4-2-4-0-4-2--7-6-7--7-6--7-6-7--7-6-2-------------------------------------------|
E|-2-0-2---2-0--2-0-2---2-0--5-4-5--5-4--5-4-5--5-4-0-------------------------------------------|

SEGUNDA ESTROFA IGUAL QUE LA PRIMERA

DEPUES EL CORO IGUAL QUE EL ANTERIOR SOLO QUE CON UNA MODIFICACION AL FINAL
PORQUE SE REPITE...

e|----------------------------------------------------------------------------------------------|
B|-------------------------------------------4------------------------------------------4-------|
G|----------------3-3--------2-2---------4-4-----4-4---------3-3--------2-2---------4-4-----4-4-|
D|--------------4-----4----4-----4-----4-------4-----------4-----4----4-----4-----4-------4-----|
A|------------4----------4-----------2-------------------4----------4-----------2---------------|
E|-----------2----------2----------2--------------------2----------2----------2-----------------|
  ES QUE LA VIDA ENTERA NO TIENE SENTIDO SIN ELLA 
e|----------------------------------------------------------------------------------------------|
B|-------------------------------------------4------------------------------------------4-------|
G|----------------3-3--------2-2---------4-4-----4-4---------3-3--------2-2---------4-4-----4-4-|
D|--------------4-----4----4-----4-----4-------4-----------4-----4----4-----4-----4-------4-----|
A|------------4----------4-----------2-------------------4----------4-----------2---------------|
E|-----------2----------2----------2--------------------2----------2----------2-----------------|
  ES QUE LA VIDA ENTERA NO TIENE SENTIDO SIN ELLA


e|----------------------------------------------------------------------------------------------|
B|----------------------------------------------------------------------------------------------|
G|----------------------------------------------------------------------------------------------|
D|-------2------------2-------------------------------------------------------------------------|
A|-4-2-4-0-4-2--4-2-4-0-4-2--7-6-7--7-6--7-6-7--7-6-2-------------------------------------------|
E|-2-0-2---2-0--2-0-2---2-0--5-4-5--5-4--5-4-5--5-4-0-------------------------------------------|
 
e|---------------------------------|
B|---------------------------------|
G|---------------------------------|
D|-------2------------2------------|
A|-4-2-4-0-4-2--4-2-4-0-4-2--7-6-7-|
E|-2-0-2---2-0--2-0-2---2-0--5-4-5-|
 
EL TERMINO ES ASI DE IMPROVISO Y CON UN ESTACATO.
Suggest correction
Give kudos to tab author, rate the tab!
1 2 3 4 5
comments
print report bad tab
guest
You may want to rate the tab now too:
select rating
Wanna post a correction for this tab? Suggest correction