Oops, an error
Loading. Please wait.

Ya No Llueve Tab

19 views 1 this week
no commentswrite comment
1 2 3 4 5
3 more votes to show rating
add to favorites
launch autoscroll
font size
0
reset
how to read this tab
guitar tuner
×
Best way to learn
"Ya No Llueve"
Autoscroll
slow
fast
+/-
esc
set tempo
stop
* Para el eterno amor de mi vida. Han sido dias dificles Pilar.
  Te dedico esto aunque sea poco. Sera para mejor, lo se.


Intro:

E|-----3------3------3------3----------------|
B|-----3------3------3------3----------------|
G|-----0------0------0------0----------------| Repetir
D|---2-------2------0------0-----------------|
A|--0-----0-3----3-2----2--------------------|
E|------------------------2----2-------------|


Solo del principio (Alejo).   Segunda guitarra el intro.

E|------17-15-------------------------------------------------------------|
B|---17---------17h15--15--15b-15b----------------------------------------|
G|-------------------17-------------17-14--17/19-14---12-14--------12-14--|
D|----------------------------------------------------------12--14--------|
A|------------------------------------------------------------------------|
E|------------------------------------------------------------------------|

E|--------------------------------------------------------19-19b----------|
B|----12h13-12--------------------17-20b-20b--20b-17-20-------------------|
G|---14--------14-12b14b12------------------------------------------------|
D|--14--------------------------------------------------------------------|
A|------------------------------------------------------------------------|
E|------------------------------------------------------------------------|

E|--17--------------------------------------------------------------------|
B|-----20-17-20---17-------------------------17---------------------------|
G|------------------19-17-19-17----17-19-------------19-------------------|
D|-------------------------------19-----19-----19-17-----19/17------------|
A|------------------------------------------------------------------------|
E|------------------------------------------------------------------------|

E|------------------------------------------------------------------------|
B|------------------------------------------------------------------------|
G|------------------------------------------------------------------------|
D|-----17/15--------------------------------------------------------------|
A|--19-------19-17--15/14-12-14/12----------------------------------------|
E|------------------------------------------------------------------------|


Verso:

E|-----3------3------3------3----------------|
B|-----3------3------3------3----------------|
G|-----0------0------0------0----------------| Repetir
D|---2-------2------0------0-----------------|
A|--0-----0-3----3-2----2--------------------|
E|------------------------2----2-------------|

 Rojo que  no veo bien, solo frio y despacio cayo
 Recobre, la conciencia y solo desperte otra vez, asustado en medio....


Puente:
                                no 2da vez
E|----------------------------|------------|
B|------3-------3--------3----|-----3------|
G|--------4-------4--------4--|-------4----| Repetir
D|----4--------4-------2------|---2--------|
A|--2--------0----------------|------------|
E|-------------------4--------|-3----------|

 De la lluvia caen recuerdos, gotas que mojaban tu cuerpo de mis


E|----2-----|
B|----2-----|
G|----3-----|
D|----4-----|
A|----4-----|
E|----2-----|

 Ojos.......


Verso:

 Ahora que puedo ver, retrato sin alma
 Recorde recobre, un beso en tu espalda.

Puente:

 De la lluvia caen recuerdos, gotas que mojaban tu cuerpo
 De mis ojos ...  no no.


Coro:

E|---------------------------------------|
B|------3-------3--------3--------3------|
G|--------4-------4--------4--------4----|
D|----4--------4-------2--------2--------|
A|--2--------0---------------------------|
E|-------------------4--------3----------|

 Ya no llueve pero esta todo cansado
 Solo me persigue la angustia
 Ya no llueve pero esta todo mojado
 una lagrima no es una gota de lluvia.

E|----2-----|
B|----2-----|
G|----3-----|
D|----4-----|
A|----4-----|
E|----2-----|

E|---------------------------------------|
B|---------------------------------------|
G|---------------------------------------|
D|---4-4--2-2---2-3-4----2---------------|
A|---4-4--2-2---2-3-4----2---------------|
E|---2-2--0-0---0-1-2----0---------------|

 Mirame  bien ......................


Verso.
Puente.
Coro.


Final:

E|---------------------------------------|
B|---------------------------------------|
G|---------------------------------------|
D|--999--777--7--777--555--5-7-----------|
A|--999--777--7--777--555--5-7-----------|
E|--777--555--5--444--333--3-5-----------|


E|----------------------------------------------------------------------|
B|----------------------------------------------------------------------|
G|----9---7---9---7---9---7---7b-7b--6-7-6--------4---6---7-6-----------|
D|--9---9---9---9---9---9---9--------------7-4--4---4---4---------------|
A|----------------------------------------------------------------------|
E|----------------------------------------------------------------------|

  yaa que paja  improvisen..!!
Suggest correction
Give kudos to tab author, rate the tab!
1 2 3 4 5
comments
print report bad tab
guest
You may want to rate the tab now too:
select rating
Wanna post a correction for this tab? Suggest correction