Oops, an error
Loading. Please wait.

Only Hope intro tab

version 1
version 1

Whole song

Interactive

30,124 views 21 this week
2 commentsread comments
1 2 3 4 5
x 7
add to favorites
×
Save as Personal and add changes to this tab that will be seen only by you. Learn more ›
×
You can save this tab as Personal to edit and correct it or add notes. All changes will be seen only by you. Learn more »
launch autoscroll
font size
0
reset
how to read this tab
guitar tuner
edit
Autoscroll
slow
fast
+/-
esc
set tempo
stop
Difficulty
This is the EASIEST and most ACCURATE way to play the tab.

fyi: The open e can also be used in place of 5th fret on B for easier 
you know that :)

Listen to the song for timing. Just thought I'd do a little to give back to the net...

e|--~~~~-----------------(0)------(0)------------------------------------|
B|12-12-12---10-9--9---7-5---2-4-5---4-2-1-2-----------------------------|
G|-----------------------------------------------------------------------|
D|-----------------------------------------------------------------------|
A|-----------------------------------------------------------------------|
E|------------------------------ ----------------------------------------|
Suggest correction
Creating personal tab
Creating personal tab
You can edit any tab online and save it as your Personal.

You can edit, replace or remove any tab part or add personal notes – all changes will be seen only by you.

Personal tabs can be accessed anytime from any device, even offline.
Learn more »
comments
print report bad tab
2 comments total.
0 reply
melly95 10 Dec 24, 2008 03:54 AM

Cant you tab the whole song :D:D ?

0 reply
Guitarfreak809 80 Mar 13, 2009 05:23 PM

Good but i think the easiest way to play it is like this...

E------------------------------------------------------------|
B-12-12-12-10-9-9--------------------------------------------|
G-----------------11--9----8-9-8-----------------------------|
D-----------------------11-------11-10-11--------------------|
A------------------------------------------------------------|
E------------------------------------------------------------|

Good effort though

guest
Wanna post a correction for this tab? Suggest correction