Oops, an error
Loading. Please wait.

Imagina't Un Nen Chords

version 1
version 1

Whole song

76 views 1 this week
no commentswrite comment
1 2 3 4 5
3 more votes to show rating
add to favorites
launch autoscroll
font size
0
reset
transpose
0
reset
simplify chords
display chords
guitar tuner
×
Best way to learn
"Imagina't Un Nen"
Autoscroll
slow
fast
+/-
esc
set tempo
stop
Intro:

----------------------------------------------
-----------------------------------------------
-----------------------------------------------
----------------------------------------------
---5-5---7--5--------------5-5---7--5--------
----------------7--5-------------------7--5-


---------------------------
---------------------------
--------------------------
--------------------------
----------5-------7---7---
-5----7-------------------
D5                            A5
Imagina't un nen que juga a pilota
D5                 A5
amb el pare fent de porter
D5                            A5
és diumenge al matí, són a un pati
D5                 A5
d'escola i no hi ha ningú al carrer
D5                             A5
i de lluny, des del cel, ells no ho
D5                 A5
veuen però hi ha alguna cosa que es mou
D5                              A5
només se senten les bromes del pare i
D5                 A5
rialles del nen que fa gol.

Em                                   A5
I una ombra els tapa el sol lentament i
Em                          A5
del cel baixa un còndor gegant
Em                                   A5
i envolta amb les urpes l'espatlla del nen
Em                 A5
i se l'emporta volant.
Suggest correction
Give kudos to tab author, rate the tab!
1 2 3 4 5
comments
print report bad tab
guest
You may want to rate the tab now too:
select rating
Wanna post a correction for this tab? Suggest correction