Oops, an error
Loading. Please wait.

Do Wah Diddy Diddy bass

version 1
version 1

Whole song

Interactive

3,500 views 6 this week
no commentswrite comment
1 2 3 4 5
2 more votes to show rating
add to favorites
×
Save as Personal and add changes to this tab that will be seen only by you. Learn more ›
×
You can save this tab as Personal to edit and correct it or add notes. All changes will be seen only by you. Learn more »
launch autoscroll
font size
0
reset
guitar tuner
edit
Autoscroll
slow
fast
+/-
esc
set tempo
stop
Author
Do Wah Diddy Diddy
Manfred Mann
Written by Jeff Barry and Ellie Greenwich; released as a single with "What 
You Gonna Do?" as the B-side.

Intro:
G|------- ------- ------- -------|------- ------- ------- -------|
D|-------------------------------|-------------------------------|
A|7-------7---7------------------|-------------------------------|
E|----------------7-------7---7--|5-------5---5---7--------------|


Verse:
G|------- ------- ------- -------|------- ------- ------- -------|
D|-------------------------------|-------------------------------|
A|-------------------------------|-------------------------------|
E|-------------------------------|-------------------------------|
  There   she was,        just a- walkin' down the street, singin'


G|------- ------- ------- -------|------- ------- ------- -------|
D|-------------------------------|-------------------------------|
A|7-------7---7------------------|----------------------------6--|
E|----------------7-------7---7--|5-------5---5---7---7---9------|
 "Do      wah did  -  dy  diddy   dum     diddy   do",


G|------- ------- ------- -------|------- ------- ------- -------|
D|-------------------------------|-------------------------------|
A|7-------7---7------------------|----------------------------6--|
E|----------------7-------7---7--|5-------5---5---7---7---9------|
  Snappin' her fin - gers, and    shufflin' her   feet,   singin'


G|------- ------- ------- -------|------- ------- ------- -------|
D|-------------------------------|-------------------------------|
A|7-------7---7------------------|-------------------------------|
E|----------------7-------7---7--|5-------5---5---7--------------|
 "Do      wah did  -  dy  diddy   dum     diddy   do" She looked


G|------- ------- ------- -------|------- ------- ------- -------|
D|-------------------------------|-------------------------------|
A|-------------------------------|-------------------------------|
E|-------------------------------|-------------------------------|
  good,               she looked  fine,               she looked
         (looked  good                    looked  fine)

G|------- ------- ------- -------|------- ------- ------- -------|
D|-------------------------------|-------------------------------|
A|--------7---------------7---7--|--------7---7---------------6--|
E|----------------7--------------|7---7-----------7---7---7------|
  good,   looked  fine,   and I   nearly  lost my mind.       Be-
      she
Verse:
G|------- ------- ------- -------|------- ------- ------- -------|
D|-------------------------------|-------------------------------|
A|7-------7---7------------------|----------------------------6--|
E|----------------7-------7---7--|5-------5---5---7---7---9------|
  fore    I   knew    it, she was walkin' next to me,     singin'


G|------- ------- ------- -------|------- ------- ------- -------|
D|-------------------------------|-------------------------------|
A|7-------7---7------------------|----------------------------6--|
E|----------------7-------7---7--|5-------5---5---7---7---9------|
 "Do      wah did  -  dy  diddy   dum     diddy   do",


G|------- ------- ------- -------|------- ------- ------- -------|
D|-------------------------------|-------------------------------|
A|7-------7---7------------------|----------------------------6--|
E|----------------7-------7---7--|5-------5---5---7---7---9------|
  Holdin' my  hand        just as natural as  can be,     singin'


G|------- ------- ------- -------|------- ------- ------- -------|
D|-------------------------------|-------------------------------|
A|7-------7---7------------------|-------------------------------|
E|----------------7-------7---7--|5-------5---5---7--------------|
 "Do      wah did  -  dy  diddy   dum     diddy   do" We  walked


G|------- ------- ------- -------|------- ------- ------- -------|
D|-------------------------------|-------------------------------|
A|-------------------------------|-------------------------------|
E|-------------------------------|-------------------------------|
  on                  to  my      door,               we  walked
         (walked  on                      my      door)

G|------- ------- ------- -------|------- ------- ------- -------|
D|-------------------------------|-------------------------------|
A|--------7---------------7---7--|--------7---7---------------6--|
E|----------------7--------------|7---7-----------7---7---7------|
  on  to  my      door,   then we kissed a little more.

Bridge:
G|------- ------- ------- -------|------- ------- ------- -------|
D|-------------------------------|----------------4-------6------|
A|7-------7---7------------------|7-------7---7------------------|
E|----------------7-------7---7--|-------------------------------|
                                          Woah,   woah,       I


G|------- ------- ------- -------|------- ------- ------- -------|
D|-------------------------------|---------------------4-----6---|
A|4-------4---4------------------|4-------4-------6--------------|
E|----------------4-------4---4--|-------------------------------|
  know    we were falling in  love,


G|------- ------- ------- -------|------- ------- ------- -------|
D|7-------7---7------------------|7-------7---7------------------|
A|----------------7-------7---7--|----------------7-------7---7--|
E|-------------------------------|-------------------------------|
                                          Yes, I  did, and so I


G|------- ------- ------- -------|------- ------- ------- -------|
D|9---9---9---9---9---9---9---9--|9---9---9---9---9---9----------|
A|-------------------------------|------------------------9---6--|
E|-------------------------------|-------------------------------|
  told her all the things I've    dreamin'    of.             Now
                              been
Verse:
G|------- ------- ------- -------|------- ------- ------- -------|
D|-------------------------------|-------------------------------|
A|7-------7---7------------------|----------------------------6--|
E|----------------7-------7---7--|5-------5---5---7---7---9------|
  we're   to- ge  -   ther nearly every   single  day,    singin'


G|------- ------- ------- -------|------- ------- ------- -------|
D|-------------------------------|-------------------------------|
A|7-------7---7------------------|----------------------------6--|
E|----------------7-------7---7--|5-------5---5---7---7---9------|
 "Do      wah did  -  dy  diddy   dum     diddy   do",        Oh,


G|------- ------- ------- -------|------- ------- ------- -------|
D|-------------------------------|-------------------------------|
A|7-------7---7------------------|----------------------------6--|
E|----------------7-------7---7--|5-------5---5---7---7---9------|
  we're   so  hap  -  py, and     how     gonna   stay,   singin'
                              that's  we're

G|------- ------- ------- -------|------- ------- ------- -------|
D|-------------------------------|-------------------------------|
A|7-------7---7------------------|-------------------------------|
E|----------------7-------7---7--|5-------5---5---7--------------|
 "Do      wah did  -  dy  diddy   dum     diddy   do" Well, I'm


G|------- ------- ------- -------|------- ------- ------- -------|
D|-------------------------------|-------------------------------|
A|-------------------------------|-------------------------------|
E|-------------------------------|-------------------------------|
  hers,                   she's   mine,                   I'm
         (I'm     hers                    she's   mine)

G|------- ------- ------- -------|------- ------- ------- -------|
D|-------------------------------|-------------------------------|
A|--------7---------------7---7--|--------7---7---------------6--|
E|----------------7--------------|7---7-----------7---7---9------|
  hers,   she's   mine,   wedding bells   gonna   chime.
                                      are
Bridge:
G|------- ------- ------- -------|------- ------- ------- -------|
D|-------------------------------|----------------4-------6------|
A|7-------7---7------------------|7-------7---7------------------|
E|----------------7-------7---7--|-------------------------------|
                                          Woah,   woah,       I


G|------- ------- ------- -------|------- ------- ------- -------|
D|-------------------------------|---------------------4-----6---|
A|4-------4---4------------------|4-------4-------6--------------|
E|----------------4-------4---4--|-------------------------------|
  know    we were falling in  love,


G|------- ------- ------- -------|------- ------- ------- -------|
D|7-------7---7------------------|7-------7---7------------------|
A|----------------7-------7---7--|----------------7-------7---7--|
E|-------------------------------|-------------------------------|
                                          Yes, I  did, and so I


G|------- ------- ------- -------|------- ------- ------- -------|
D|9---9---9---9---9---9---9---9--|9---9---9---9---9---9----------|
A|-------------------------------|------------------------9------|
E|-------------------------------|-------------------------------|
  told her all the things I've    dreamin'    of.             Now
                              been
Verse:
G|------- ------- ------- -------|------- ------- ------- -------|
D|-------------------------------|-------------------------------|
A|-------------------------------|-------------------------------|
E|-------------------------------|-------------------------------|
  we're   to- ge  -   ther nearly every   single  day,    singin'


G|------- ------- ------- -------|------- ------- ------- -------|
D|-------------------------------|-------------------------------|
A|7-------7---7------------------|----------------------------6--|
E|----------------7-------7---7--|5-------5---5---7---7---7------|
 "Do      wah did  -  dy  diddy   dum     diddy   do",        Oh,


G|------- ------- ------- -------|------- ------- ------- -------|
D|-------------------------------|-------------------------------|
A|7-------7---7------------------|----------------------------6--|
E|----------------7-------7---7--|5-------5---5---7---7---7------|
  we're   so  hap  -  py, and     how     gonna   stay,   singin'
                              that's  we're

G|------- ------- ------- -------|------- ------- ------- -------|
D|-------------------------------|-------------------------------|
A|7-------7---7------------------|-------------------------------|
E|----------------7-------7---7--|5-------5---5---7--------------|
 "Do      wah did  -  dy  diddy   dum     diddy   do" Well, I'm
                              I   made it!

G|------- ------- ------- -------|------- ------- ------- -------|
D|-------------------------------|-------------------------------|
A|-------------------------------|-------------------------------|
E|-------------------------------|-------------------------------|
  hers,                   she's   mine,                   I'm
         (I'm     hers                    she's   mine)

G|------- ------- ------- -------|------- ------- ------- -------|
D|-------------------------------|-------------------------------|
A|--------7---------------7---7--|--------7---7------------------|
E|----------------7--------------|7---7-----------7---7---5---5--|
  hers,   she's   mine,   wedding bells   gonna   chime.
                                      are
Outro:
G|------- ------- ------- -------|------- ------- ------- -------|
D|-------------------------------|-------------------------------|
A|-------------------------------|-------------------------------|
E|7---7---7---7---7---7---7---7--|7---7---7---7---7---7---7---7--|
        Woah,                         oh, yeah!


G|------- ------- ------- 6---6--|------- ------- ------- -------|
D|--------6---6---9---9----------|------------------------4------|
A|7------------------------------|--------4---4---7---7-------6--|
E|-------------------------------|5---5--------------------------|
                                                     We'll sing it,
 (Do      wah did  -  dy  diddy   dum     diddy   do)

G|------- ------- ------- 6------|------- ------- ------- -------|
D|--------6---6---9---9----------|------------------------4------|
A|7---7--------------------------|4---4-----------4---7-------6--|
E|----------------------------5--|--------5---5------------------|
  do  it,             oh, yeah,       ah,     oh, yeah,
 (Do      wah did  -  dy  diddy   dum     diddy   do)

G|------- ------- ------- 6------|------- ------- ------- -------|
D|--------6---6---9---9----------|----------------2--------------|
A|7---7--------------------------|4---4-------4------------------|
E|----------------------------5--|-------------------------------|
  Do      wah did  -  dy  diddy   dum     diddy   do.

Please e-mail me for any corrections, or write a comment.

            
            
Suggest correction
Creating personal tab
Creating personal tab
You can edit any tab online and save it as your Personal.

You can edit, replace or remove any tab part or add personal notes – all changes will be seen only by you.

Personal tabs can be accessed anytime from any device, even offline.
Learn more »
Give kudos to tab author, rate the tab!
1 2 3 4 5
comments
print report bad tab
guest
You may want to rate the tab now too:
select rating
Wanna post a correction for this tab? Suggest correction