Oops, an error
Loading. Please wait.

Sweet Pea Bass Tab

34 views 1 this week
no commentswrite comment
1 2 3 4 5
3 more votes to show rating
add to favorites
launch autoscroll
font size
0
reset
guitar tuner
Autoscroll
slow
fast
+/-
esc
set tempo
stop
Help us to improve Ultimate-Guitar.com Take our survey!
×
Author
Difficulty
novice
Tabbed by: 6METAL6BASSIST6
E-mail: petergriffinav@gmail.com

Tuning: EADG

G|----------------------------------------|
D|----------------------------------------|
A|----------------------------------------|
E|----------------------------------------|

G|----------------------------------------------------------------|
D|------------3---3---------------5-------------------------------| x6
A|3-------------------------------------------3---3---------------|
E|----------------------------------------------------------------|

0:32

G|----------------------------------------------------------------|
D|--------------------------------5-------------------------------| x4
A|3-----------3---3---------------------------3---3---------------|
E|----------------------------------------------------------------|

0:51

G|----------------------------------------------------------------|
D|------------3---3---------------5-------------------------------| x4
A|3-------------------------------------------3---3---------------|
E|----------------------------------------------------------------|

1:10

G|----------------------------------------------------------------|
D|--------------------------------5-------------------------------| x4
A|3-----------3---3---------------------------3---3---------------|
E|----------------------------------------------------------------|

1:29

G|----------------------------------------------------------------|
D|------------3---3---------------5-------------------------------| x4
A|3-------------------------------------------3---3---------------|
E|----------------------------------------------------------------|

1:48

G|----------------------------------------------------------------|
D|--------------------------------5-------------------------------| x4
A|3-----------3---3---------------------------3---3---------------|
E|----------------------------------------------------------------|

2:08

G|----------------------------------------------------------------|
D|------------3---3---------------5-------------------------------| x3
A|3-------------------------------------------3---3---------------|
E|----------------------------------------------------------------|

G|------------------------------------------------|
D|------------3---3---------------5---------------|
A|3-------------------------------------------3---|
E|------------------------------------------------|

G|--------------------------------------------------------|
D|--------------------------------------------------------|
A|3-------------------------------------------------------|
E|--------------------------------------------------------|

2:31 until fadeout.

G|----------------------------------------------------------------|
D|------------3---3---------------5-------------------------------|
A|3-------------------------------------------3---3---------------|
E|----------------------------------------------------------------|
Suggest correction
Give kudos to tab author, rate the tab!
1 2 3 4 5
comments
print report bad tab
guest
You may want to rate the tab now too:
select rating
Wanna post a correction for this tab? Suggest correction