Oops, an error
Loading. Please wait.

Too Many People Bass Tab

7 views 1 this week
no commentswrite comment
1 2 3 4 5
3 more votes to show rating
add to favorites
launch autoscroll
font size
0
reset
guitar tuner
Autoscroll
slow
fast
+/-
esc
set tempo
stop
Help us to improve Ultimate-Guitar.com Take our survey!
×
Author
Difficulty
novice
Tabbed by: 6METAL6BASSIST6
E-mail: petergriffinav@gmail.com

Tuning: EADG

G|----------------------------------------------------------------|
D|----------------------------------------------------------------|
A|3-----------3---3-----------3---1-----------1---1---------------|
E|----------------------------------------------------------------|

0:07

G|----------------------------------------------------------------|
D|5-------------------------------3-----------3---3-----------4---|
A|----------------3-----------3-----------------------------------|
E|----------------------------------------------------------------|

G|----------------------------------------------------------------|
D|5-----------5-------------------3-----------3---3-----------5---|
A|----------------3-----------3-----------------------------------|
E|----------------------------------------------------------------|

G|----------------------------------------------------------------|
D|6-----------6-------------------6-----------6-------------------|
A|----------------6-------------------------------6-----------6---|
E|----------------------------------------------------------------|

G|----------------------------------------------------------------|
D|----------------------------------------------------------------|
A|3-----------3---3-----------3---1-----------1---1---------------|
E|----------------------------------------------------------------|

0:31

G|----------------------------------------------------------------|
D|5-----------5-------------------3-----------3---3-----------4---|
A|----------------3-----------3-----------------------------------|
E|----------------------------------------------------------------|

G|----------------------------------------------------------------|
D|5-----------5-------------------3-----------3---3-----------5---|
A|----------------3-----------3-----------------------------------|
E|----------------------------------------------------------------|

G|--------------------------------------/-8-----------------------|
D|6-----------6---------------8---6---------------------------8---|
A|----------------6-------------------------------6---------------|
E|----------------------------------------------------------------|

G|----------------------------------------------------------------|
D|----------------------------------------------------------------|
A|3-------3-------3-----------3---1-----------1---1---------------|
E|----------------------------------------------------------------|

0:57

G|----------------------------------------------------------------|
D|----------------------------------------------------------------|
A|1-----------1---1-----------1---1-----------1---1---------------|
E|----------------------------------------------------------------|

G|----------------------------------------------------------------|
D|----------------------------------------------------------------|
A|1-----------1---1---------------1-----------1---1-----------1---|
E|----------------------------------------------------------------|

G|----------------------------------------------------------------|
D|1-----------1---------------------------------------------------|
A|----------------4-----------4---3-----------3---3-------3-------|
E|----------------------------------------------------------------|

G|--------------------------------|
D|--------------------------------|
A|1-----------1---1---------------|
E|--------------------------------|

1:18

G|----------------------------------------------------------------|
D|5-------------------------------3-----------3---3-----------4---|
A|----------------------------------------------------------------|
E|----------------------------------------------------------------|

G|----------------------------------------------------------------|
D|5-----------5-------------------3-----------3---3-----------5---|
A|----------------3-----------3-----------------------------------|
E|----------------------------------------------------------------|

G|--------------------------------------/-8-----------------------|
D|6-----------6---------------8---6---------------------------8---|
A|----------------6-------------------------------6---------------|
E|----------------------------------------------------------------|

G|----------------------------------------------------------------|
D|----------------------------------------------------------------|
A|3-------3-------3-----------3---1-----------1---1---------------|
E|----------------------------------------------------------------|

1:42

G|----------------------------------------------------------------|
D|----------------------------------------------------------------|
A|1-----------1---1-----------1---1-----------1---1---------------|
E|----------------------------------------------------------------|

G|----------------------------------------------------------------|
D|----------------------------------------------------------------|
A|1-----------1---1---------------1-----------1---1-----------1---|
E|----------------------------------------------------------------|

G|----------------------------------------------------------------|
D|1-----------1---------------------------------------------------|
A|----------------4-----------4---3---------------3-------3-------|
E|----------------------------------------------------------------|

G|----------------------------------------------------------------|
D|----------------------------------------------------------------|
A|1-----------1---1---------------1-----------1---1---------------|
E|----------------------------------------------------------------|

2:06

G|----------------------------------------------------------------|
D|1---------------------------------------------------------------|
A|----------------4---------------3---------------2---------------|
E|----------------------------------------------------------------|

G|--------------------------------------------------------------------------------|
D|1-------------------------------------------------------------------------------|
A|----------------4---------------3---------------2-----------2-------------------|
E|--------------------------------------------------------------------------------|

G|----------------------------------------------------------------|
D|----------------------------------------------------------------| x2
A|1-----1-1-------1-----1---------1-----1-1---1---1---------------|
E|----------------------------------------------------------------|

2:29

G|----------------------------------------------------------------|
D|1---------------------------------------------------------------|
A|----------------4---------------3---------------2---------------|
E|----------------------------------------------------------------|

G|--------------------------------------------------------------------------------|
D|1-------------------------------------------------------------------------------|
A|----------------4---------------3---------------2-----------2-------------------|
E|--------------------------------------------------------------------------------|

G|----------------------------------------------------------------|
D|----------------------------------------------------------------| x2
A|1-----1-1-------1-----1---------1-----1-1---1---1---------------|
E|----------------------------------------------------------------|

2:51

G|----------------------------------------------------------------|
D|----------------------------------------------------------------|
A|1---------------1---------------1---------------1---------------|
E|----------------------------------------------------------------|

G|----------------------------------------------------------------|
D|----------------------------------------------------------------|
A|1-------------------------------1-------------------------------|
E|----------------------------------------------------------------|

3:03

G|----------------------------------------------------------------|
D|5-----------5-------------------3-----------3---3-----------3---|
A|----------------3-----------3-----------------------------------|
E|----------------------------------------------------------------|

G|----------------------------------------------------/-12--------|
D|5-----------5-------------------3-----------3---3---------10----|
A|----------------3-----------3---------------------------------8-|
E|----------------------------------------------------------------|

G|----------------------------------------------------------------|
D|5-----------5-------------------3-----------3-------------------|
A|----------------3-----------3-------------------------------3---|
E|------------------------------------------------1---3---5-------|

G|----------------------------------------------------------------|
D|x-----------5-------------------3-----------3---3-----------3---|
A|----------------3-----------3-----------------------------------|
E|----------------------------------------------------------------|

G|--------------------------------------------------------------------|
D|5-----------5-------------------3-----------3-----------3-------5---| fades out here.
A|----------------3-----------3---------------------------------------|
E|------------------------------------------------1-------------------|
Suggest correction
Give kudos to tab author, rate the tab!
1 2 3 4 5
comments
print report bad tab
guest
You may want to rate the tab now too:
select rating
Wanna post a correction for this tab? Suggest correction