Oops, an error
Loading. Please wait.

4St 7Lb Bass Tab

version 2
version 2

Whole song

Interactive

799 views 1 this week
1 commentread comment
1 2 3 4 5
please rate
add to favorites
launch autoscroll
font size
0
reset
guitar tuner
Autoscroll
slow
fast
+/-
esc
set tempo
stop
Help us to improve Ultimate-Guitar.com Take our survey!
×
Author
Difficulty
SSaxdude 226
novice
Bass tab for 4st 7lb by the Manic Street Preachers, off their album the Holy
Bible. Please rate and enjoy!

Intro/Verses
G|-----------------------------------------------------------------|
D|---------3-3---------3-3-----------------2-2---------2-2---------| (repeat)
A|-----1-1---------1-1---------1-0-----1-1---------1-1---------1-0-|
E|-3-3---------3-3---------3-3-----3-3---------3-3---------3-3-----|


Pre-chorus ("Karen says...")
G|----------------------------------------------------------------|
D|----------------------------------------------------------------|
A|--------5----5--------3-----------------------------------------|
E|-5----5--------3----3-----7-7-7-7-7-7-7-7-7-7/0-0-0-0-0-0-0-0-0-|
                            (not sure on amount of 7's and 0's)

Chorus ("I I I I I wanna walk...")
G|------------------------|
D|------------------------|   (repeat)
A|-6-6-6-5-5-5--3-3-3-5-5-|
E|------------------------|

Verses
Pre-chorus
Chorus

Ending (slow part)
G|-------------------  (then add      G|----------   G|-------|
D|-----------3--3-5-5  these          D|----------   D|-5-3---|
A|-3--3-3--3---------  fills in       A|---0-3-5-3   A|-----5-|
E|-------------------  occasionally)  E|-3--------   E|-------|
On the first fill, I think you skip the last 5 on D string in the regular part.

There's another part that comes in at like 4:06 and 4:51
G|------------------|
D|------------------|
A|------------------|
E|-5--5-5--5-5--5-5-|

Fill at 4:34
G|----------------|
D|-7-5--2-3-2-----|
A|------------5-3-|
E|----------------|
Suggest correction new What's this?
You can suggest a correction to this tab. Community and Mods will review your correction and vote to approve or reject it.
comments
We did not receive enough feedback on this tab! Please rate:
print report bad tab
1 2 3 4 5
1 comment total.
0 reply
SSaxdude 226 wrote on April 11 2012, 04:39 pm

While the ending I wrote is technically in the correct key, this is MUCH closer to the recording:


First off, the chorus going into end ends on a C# (4th fret A string)

G-----------------------------
D-----------------------------
A--3--3-3--3-------------3-5-3
E------------1--1-3--3-5------

G-------------------------
D-------------------------
A--3--3-3--3-------------3
E------------1--1-3---3---

G-----------------------------
D-----------------------------
A--3--3-3--3------------------
E------------1--1-3--3-5(hold)

G------------------------------
D------------------------------
A--3--3-3--3--------------3-5-3
E------------1--1-3--33-5------

G-------------------------------------------------
D-----------5--3----------------------------------
A--3--3-3---------5-------------------------------
E--------------------1--1-3--3-5--5-5--5-5--5-5--5

G------------------------------
D------------------------------
A--3--3-3--3--------------3-5-3
E------------1--1-3--33-5------

G------------------------------------
D-----------5--3---------------------
A--3--3-3---------5------------------
E--------------------1--1-3--3-5(hold)

G--------------------------------------------
D-7-5----------------------------------------
A------7--5-7-5--3--3-3--3--------------3-5-3
E--------------------------1--1-3--33-5------

G-------------------------------------------------
D-----------5--3----------------------------------
A--3--3-3---------5-------------------------------
E--------------------1--1-3--3-5--5-5--5-5--5-5--5

guest
You may want to rate the tab now too:
select rating
Please do not post tabs as comments. Select "correction" instead!