Oops, an error
Loading. Please wait.

Another Invented Disease Tab

version 2
version 2

Whole song

Interactive

1,197 views 1 this week
no commentswrite comment
1 2 3 4 5
2 more votes to show rating
add to favorites
launch autoscroll
font size
0
reset
how to read this tab
guitar tuner
Autoscroll
slow
fast
+/-
esc
set tempo
stop
Help us to improve Ultimate-Guitar.com Take our survey!
×
Manic Street Preachers - Another Invented Disease

Album: Generation Terrorists
Tuning: eBGDAD (Drop D)

Tabbed By: Dan (tallicafan888)


Main Riff

e||------|-------------------------------------------------|
B||------|-------------------------------------------------|
G||------|-------------------------------------------------|
D||------|--------3--------------------------3-1-3--1-1-/3-| 
A||------|-----------5~--0h3p0-0h5p0-0h3p0---3-1-3--1-1-/3-|  
D||--12\-|-0h1h2-----------------------------3-1-3--1-1-/3-|


Verse: Main riff x4 palm muted


Bridge

Guitar 1
e||-----------------------------|    |--------------------|
B||-----------------------------|    |--------------------|
G||--3-----5-5--3-5-7--5--7-----| x3 |--10--------10------| Play after 3
D||--3--3--5-5--3-5-7--5--7-----|    |--10--------10------| times and let
A||--1--3--3-3--1-3-5--3--5-----|    |---8---------8------| ring
D||-----3-----------------------|    |--------------------|


Guitar 2 plays the same chords as above but really fast and palm muted.


Chorus

e||-------------------------------------|
B||-------------------------------------|
G||------------------3----------3-------|
D||--3-------1-------3-------1--3--3----| 
A||--3-------1-------1-------1--1--3----|
D||--3-------1---------------1-----3----|


Solo

Guitar 1
e||----------------------------------| |-------------------------|
B||----------------------------------| |-------------------------|
G||------------5p2---3p2-------------| |-------------------------|
D||--------0---------------5p3-------| |-------------------------|
A||--0h2h3---3-----3-----3-----5p3---| |-------------------------|
D||----------------------------------| |--0--2--3--5--7p5-3p2-0--|


Guitar 2
e||--------------------------------------------|
B||--12-----12-----12--------------------------|
G||--14(16)-14(16)-14(16)-14-12----12----12----|
D||-----------------------------14----14-------| x2
A||--------------------------------------------|
D||--------------------------------------------|


e||--------------------------------------------------|
B||-----------------13p10-10-11p10-10----------------|
G||-----------12-x---------------------12p10---------|
D||--12h14h15--------------------------------12p10---| x2
A||--------------------------------------------------|
D||--------------------------------------------------|


e||--17-----17-----17-----15----------------15---|
B||--20(22)-20(22)-20(22)----18-15-18-15-18------|
G||----------------------------------------------|
D||----------------------------------------------| x2
A||----------------------------------------------|
D||----------------------------------------------|


e||----------------10p8-----------------------|
B||---------------------10p8-10p8-------------|
G||--------10-10------------------10p7-10p7---|
D||--10h12------------------------------------| x2
A||-------------------------------------------|
D||-------------------------------------------|


e||----------------13-13h15p13-11h13p11-10h11p10-----------------------------------------|
B||------------------------------------------------13h15p13-11h13p11-10h11p10------------|
G||---------------------------------------------------------------------------12h14p12---|
D||--10(12)---8~-------------------------------------------------------------------------|
A||--------------------------------------------------------------------------------------|
D||--------------------------------------------------------------------------------------|


e||----------------------|
B||----------------------|
G||--10~~---8~~---7~~----|
D||----------------------|
A||----------------------|
D||----------------------|


There we go.
The order shouldn't be too hard to figure out.
Suggest correction
Give kudos to tab author, rate the tab!
1 2 3 4 5
comments
print report bad tab
guest
You may want to rate the tab now too:
select rating
Wanna post a correction for this tab? Suggest correction